Oops, an error
Loading. Please wait.

Nobody Bass Tab

version 1
version 1

Whole song

Interactive

9,249 views 15 this week
no commentswrite comment
1 2 3 4 5
worth learning
x 2
add to favorites
launch autoscroll
font size
0
reset
guitar tuner
Tab Pro tools
  • play this tab
  • loop segment
  • change instrument
  • show fretboard
  • metronome
Autoscroll
slow
fast
+/-
esc
set tempo
stop
Contributor
Skindred - Nobody

Tabbed by: RabbiBri
Album: Babylon
Bassist: Daniel Pugsley
Tuning: BEADG

  -- Riffs --

A. G|-------------------------------------|
   D|-------------------------------------|
   A|-------------------------------------|
   E|--------------------------1-4-4-4-1--|
   B|1-1---1-1---1-1---1-1-1-4-----------4|

B. D|--------------------|--------------------|
   G|-----------------1-1|--------------------|
   A|-------------3-1----|-------------3-1-4-4|
   E|------4-4-----------|------4-4-----------|
   B|1--1------1---------|1--1------1---------|

C. D|--------------------|    |-------------------|
   G|-----------------1--|    |------------------1|
   A|-----------3-1-0----| x3 |-----------313031--| x1
   E|------4-------------|    |------4------------|
   B|1--1-----1----------|    |1--1-----1---------|

D. D|---------------------|
   G|---------------------|
   A|---------------------|
   E|--------------4-1----|
   B|1--1--1-3-4-4-----4-3|

E. D|----------------------------------|
   G|----------------------------------|
   A|----------------------------------|
   E|------------------------------4---|
   B|1---1--1--4--1--4-3-4-3-4-3-1----3|

F. D|-------------------------------|
   G|-------------------------------|
   A|-------------------------------|
   E|-------------------------------|
   B|1-1-1-1-1-1-1-1-1-1-1-1-1-1-1-1|

G. D|---------------|---------------|    
   G|---------------|---------------|    
   A|---------------|---------------|
   E|--------------1|---------------|  
   B|3-1---3-1-3-1--|3-1---3-1-3-1-4|
  
  -- Structure --

Intro: Ax1, Bx2
Verse: Cx2, Ax1, Dx4
Prechorus: Ex2, Fx4
Chorus: Gx2
Verse: Cx2, Ax1, Dx4
Prechorus: Ex2, Fx4
Chorus: Gx4
Interlude: Bx2
Prechorus: Ex2, Fx4
Chorus: Gx4

End: B|1--1--|
comments
We did not receive enough feedback on this tab! Please rate:
print report bad tab
1 2 3 4 5
I want to post or [tab]
guest
You may want to rate the tab now too:
select rating
Please do not post tabs as comments. Select "correction" instead!