Oops, an error
Loading. Please wait.

Nobody Tab

version 1
version 1

Whole song

Interactive

23,853 views 18 this week
no commentswrite comment
1 2 3 4 5
excellent!
x 5
add to favorites
launch autoscroll
font size
0
reset
how to read this tab
guitar tuner
Tab Pro tools
  • play this tab
  • loop segment
  • change instrument
  • show fretboard
  • metronome
×
Best way to learn
"Nobody"
Autoscroll
slow
fast
+/-
esc
set tempo
stop
Contributor
Tuning
C G C F A D
-------------------------------------------------------------------------------
                             NOBODY - Skindred
-------------------------------------------------------------------------------
Tabbed by: blair30
Email: blair_30@hotmail.co.uk

Tuning: Drop C - CGCFAD

D|---------8----8----8-----------8-----8----8----------|
A|-----/10----8----10---------/10----8----10-----------|
F|-----------------------------------------------------|
C|-0-0---------------------0-0-------------------------|
G|-0-0---------------------0-0-------------------------|
C|-0-0---------------------0-0-------------------------|    x2

D|-----------------------------------------------------|
A|-----------------------------------------------------|
F|-----------------------------------------------------|
C|-0-0-3-0~---1h3p0-6----0-0-3-0~---1h3p0-4------------|
G|-0-0-3-0~---1h3p0-6----0-0-3-0~---1h3p0-4------------|
C|-0-0-3-0~---1h3p0-6----0-0-3-0~---1h3p0-4------------|    x2

D|-----------------------------------------------------|
A|-----------------------------------------------------|
F|-----------------------------------------------------|
C|-----------------------------------------------------|
G|-0-0-3-0----1h3p0-6----0-0-3-0----1h3p0-6------------|
C|-0-0-3-0----1h3p0-6----0-0-3-0----1h3p0-6------------|    x4
   x x x x               x x x x     

D|---------8----8----8-----------8-----8----8----------|
A|-----/10----8----10---------/10----8----10-----------|
F|-----------------------------------------------------|
C|-0-0---------------------0-0-------------------------|
G|-0-0---------------------0-0-------------------------|
C|-0-0---------------------0-0-------------------------|    x4

D|-----------------------------------------------------|
A|-----------------------------------------------------|
F|-----------------------------------------------------|
C|-----------------------------------------------------|
G|-6p5----6p5-6p5-8----6p5----6p5-6p5-8----------------|    x4
C|-----------------------------------------------------|    

D|-------------------------------------------------------------------|
A|-------------------------------------------------------------------|
F|-------------------------------------------------------------------|
C|-1p0-0-0-1p0-0-0-1p0-0-1p0-0-3~-1p0-0-0-1p0-0-0-1p0-0-1p0-0-3~-----|
G|-1p0-0-0-1p0-0-0-1p0-0-1p0-0-3~-1p0-0-0-1p0-0-0-1p0-0-1p0-0-3~-----|  x2
C|-1p0-0-0-1p0-0-0-1p0-0-1p0-0-3~-1p0-0-0-1p0-0-0-1p0-0-1p0-0-3~-----|

D|-------------------------------------------------------------------|
A|-------------------------------------------------------------------|
F|-------------------------------------------------------------------|
C|-------------------------------------------------------------------|
G|-0-----3-0-0--3-0--1h3p0-6~----------------------------------------|
C|-0-----3-0-0--3-0--1h3p0-6~----------------------------------------|
   x     x x x  x x  

D|-----------------------------------------------------|
A|-----------------------------------------------------|
F|-----------------------------------------------------|
C|-----------------------------------------------------|
G|-0-0-3-0----1h3p0-6----0-0-3-0----1h3p0-6------------|
C|-0-0-3-0----1h3p0-6----0-0-3-0----1h3p0-6------------|    x3
   x x x x               x x x x    

D|---------8----8----8-----------8-----8----8----------|
A|-----/10----8----10---------/10----8----10-----------|
F|-----------------------------------------------------|
C|-0-0---------------------0-0-------------------------|
G|-0-0---------------------0-0-------------------------|
C|-0-0---------------------0-0-------------------------|    x4

D|-----------------------------------------------------|
A|-----------------------------------------------------|
F|-----------------------------------------------------|
C|-----------------------------------------------------|
G|-6p5----6p5-6p5-8----6p5----6p5-6p5-8----------------|    x4
C|-----------------------------------------------------|    

D|-------------------------------------------------------------------|
A|-------------------------------------------------------------------|
F|-------------------------------------------------------------------|
C|-1p0-0-0-1p0-0-0-1p0-0-1p0-0-3~-1p0-0-0-1p0-0-0-1p0-0-1p0-0-3~-----|
G|-1p0-0-0-1p0-0-0-1p0-0-1p0-0-3~-1p0-0-0-1p0-0-0-1p0-0-1p0-0-3~-----|  x2
C|-1p0-0-0-1p0-0-0-1p0-0-1p0-0-3~-1p0-0-0-1p0-0-0-1p0-0-1p0-0-3~-----|

D|-----------------------------------------------------|
A|-----------------------------------------------------|
F|-----------------------------------------------------|
C|-0-0-3-0~---1h3p0-6----0-0-3-0~---1h3p0-4------------|
G|-0-0-3-0~---1h3p0-6----0-0-3-0~---1h3p0-4------------|
C|-0-0-3-0~---1h3p0-6----0-0-3-0~---1h3p0-4------------|    x2

D|-----------------------------------------------------|
A|-----------------------------------------------------|
F|-----------------------------------------------------|
C|-0---------//////------------------------------------|
G|-0---------//////------------------------------------|    
C|-0---------//////------------------------------------|

D|-----------------------------------------------------|
A|-----------------------------------------------------|
F|-----------------------------------------------------|
C|-----------------------------------------------------|
G|-////6p5----6p5-6p5-8----6p5----6p5-6p5-8------------|    x4
C|-----------------------------------------------------|

   

D|-------------------------------------------------------------------|
A|-------------------------------------------------------------------|
F|-------------------------------------------------------------------|
C|-//1p0-0-0-1p0-0-0-1p0-0-1p0-0-3~-1p0-0-0-1p0-0-0-1p0-0-1p0-0-3~---|
G|-//1p0-0-0-1p0-0-0-1p0-0-1p0-0-3~-1p0-0-0-1p0-0-0-1p0-0-1p0-0-3~---|  x2
C|-//1p0-0-0-1p0-0-0-1p0-0-1p0-0-3~-1p0-0-0-1p0-0-0-1p0-0-1p0-0-3~---|

D|----------------------------------------------------|
A|----------------------------------------------------|
F|----------------------------------------------------|
C|-0-0------------------------------------------------|
G|-0-0------------------------------------------------|
C|-0-0------------------------------------------------|
   x x

| /  slide up
| \  slide down
| h  hammer-on
| p  pull-off
| ~  vibrato
| +  harmonic
| x  Mute note
===============================================================================
comments
print report bad tab
I want to post or [tab]
guest
You may want to rate the tab now too:
select rating
Please do not post tabs as comments. Select "correction" instead!