Oops, an error
Loading. Please wait.

Nobody Acoustic tab

version 5
version 5

Whole song

Interactive

151 views 3 this week
no commentswrite comment
1 2 3 4 5
3 more votes to show rating
add to favorites
×
Save as Personal and add changes to this tab that will be seen only by you. Learn more ›
×
You can save this tab as Personal to edit and correct it or add notes. All changes will be seen only by you. Learn more »
launch autoscroll
font size
0
reset
how to read this tab
guitar tuner
edit
Autoscroll
slow
fast
+/-
esc
set tempo
stop
It is the unplugged version, which means they play it without any drums/percussion or bass.
This is why the guitar plays different in some details and why the order may be different to 
the studio version.


[Intro]

(half of the chorus)

D|---------------------------------------------------------------------------|
A|---------------------------------------------------------------------------|
F|--------------0------------------------------------------------------------| 4x
C|-----------10---10----10---------------------------------------------------|
G|-----5/12----------12------------------------------------------------------|
C|-0-0-----------------------------------------------------------------------|


[Verse]

     PM--------|            PM--------|
D|---------------------------------------------------------------------------|
A|---10--10--10-------------10--10--10---------------------------------------|
F|----9---9---9-----12/14----9---9---9---------12/14-------------------------| 2x
C|---10--10--10-------------10--10--10---------------------------------------|
G|---------------------------------------------------------------------------|
C|-0-------------10-------0-----------10-10-10-------------------------------|
                                     |triplet|

[Pre-Chorus]

(same as intro but played 8 times instead of 4 times)

D|---------------------------------------------------------------------------|
A|---------------------------------------------------------------------------|
F|--------------0------------------------------------------------------------| 8x
C|-----------10---10----10---------------------------------------------------|
G|-----5/12----------12------------------------------------------------------|
C|-0-0-----------------------------------------------------------------------|


[Chorus]

D|---5---------|
A|-----5-------|
F|-------5-----|
C|-----------3-|
G|-------------|
C|-0-------3---|

D|---5-------5-|
A|-----5-------|
F|-------5-----| 7x
C|-------------|
G|-------------|
C|-0-------3---|
 


************************************
| /   Slide up
| PM  Palm mute
************************************

            
            
Suggest correction
Creating personal tab
Creating personal tab
You can edit any tab online and save it as your Personal.

You can edit, replace or remove any tab part or add personal notes – all changes will be seen only by you.

Personal tabs can be accessed anytime from any device, even offline.
Learn more »
Give kudos to tab author, rate the tab!
1 2 3 4 5
comments
print report bad tab
guest
You may want to rate the tab now too:
select rating
Wanna post a correction for this tab? Suggest correction