Oops, an error
Loading. Please wait.

Rat Race Bass Tab

version 1
version 1

Whole song

Interactive

5,087 views 15 this week
no commentswrite comment
1 2 3 4 5
please rate
add to favorites
launch autoscroll
font size
0
reset
guitar tuner
Autoscroll
slow
fast
+/-
esc
set tempo
stop
Help us to improve Ultimate-Guitar.com Take our survey!
×
Tuning
C G C F A D
Skindred - Rat race
110 Bpm
Tuning Drop C
Tabber: Bramdemakker (<-- check the cover on youtube)
Intro:        Verse:
A |---0------|--------------------------------------------------------------|
C |-2--------|--------------------------------------------------------------|
G |-----2----|--------------------------------------------------------------|
C |-------\2x|-2----2-5-1-3-2----2-5-1-3-2----2-5-1-3-30-0202030-02020-\----|2x

Pre-Chorus:
A |---------0--0--0----------------------|
C |-2--2--2------------------------------|
G |-----------------2--2--2-2--2--2------|
C |---------------------------------\----|2x

A |------------------------------------------------------------------|
C |-2~~~~------------------------------------------------------------|
G |---wait-for-it--2--2--2-2--2--2-----------------2--2--2-2\--------|
C |--------------------------------2--2----5--5----------------------|

Chorus:
  |========3x=========|
A |-------------------|-------------------|------------|
C |-2-22-2-2----------|-------------------|-2-22-2-2---|
G |-------------------|-------------------|------------|
C |----------5402030--|x0--1--2--0--4--\2x|------------|

Verse

Pre-Chorus:
A |---------0--0--0----------------------|
C |-2--2--2------------------------------|
G |-----------------2--2--2-2--2--2------|
C |---------------------------------\----|4x

Chorus with different ending:
A |-------------------------------|
C |-------------------------------|
G |-------------------------------|
C |x0--1--2--0--4--x0--5--4--0--3-|

Bridge:
  |===3x====|
A |---------|---------------------------------------------------------------|
C |---------|---------------------------------------------------------------|
G |---------|---------------------------------------------------------------|
C |-5--4--7-|-502030205--4--7-5020302054-4-4-47-/2x|-50203020-00003-3-------|4x

A |---------|---------|---------0--0--0---------------|
C |-2--2--2-|---------|-2--2--2-----------------------|
G |---------|-2--2--2-|-----------------2--2--2-2\----|
C |---------|---------|-------------------------------|

Chorus with different ending:
  |==============2x================|
A |--------------------------------|-----------|
C |--------------------------------|-2-22-2-2--|
G |--------------------------------|-----------|
C |-x0--1--2--0--5--x0--5--4--0--3-|-----------|
comments
We did not receive enough feedback on this tab! Please rate:
print report bad tab
1 2 3 4 5
I want to post or [tab]
guest
You may want to rate the tab now too:
select rating
Please do not post tabs as comments. Select "correction" instead!