Oops, an error
Loading. Please wait.

Rat Race Tab

version 2
version 2

Whole song

Interactive

959 views 3 this week
no commentswrite comment
1 2 3 4 5
please rate
add to favorites
launch autoscroll
font size
0
reset
how to read this tab
guitar tuner
Tab Pro tools
  • play this tab
  • loop segment
  • change instrument
  • show fretboard
  • metronome
×
Best way to learn
"Rat Race"
Autoscroll
slow
fast
+/-
esc
set tempo
stop
Contributor
Difficulty
Tuning
novice
C G C F A D
Skindred - Ratrace
Tabbed by whoomit.

Drop C

Intro:
D|----------------------------------|
A|----------------------------------|
F|-9-------12-------11--------------|
C|-9-------12-------12--------------|
G|-7-------10-------9---------------|
C|------------------9---------------|   X2


Verse (play twice):
D|------------------|
A|------------------|
F|------------------|
C|------------------|
G|-2------x2-5-1-3--|
C|-2------x2-5-1-3--|

D|------------------|
A|------------------|
F|------------------|
C|------------------|
G|-2------x2-5-1-3--|
C|-2------x2-5-1-3--|

D|------------------|
A|------------------|
F|------------------|
C|------------------|
G|-2------x2-5-222--|
C|-2------x2-5-222--|
pm:            ..

D|-------------------|
A|-------------------|
F|-------------------|
C|-------------------|
G|-------------------|
C|5p0-2-4-05p0-2-4-0-|



Pre Chorus 1:
D|-------------------------------------------|
A|-------------------------------------------|
F|-------------------------------------------|
C|-9-9-9-9-9-9-9/12-12-12-12-12-12-12-12-12--|
G|-7-7-7-7-7-7-7/10-10-10-10-10-10-10-10-10--|
C|-------------------------------------------|
pm:  . .   . .          .  .     .  .     .

D|---------------------------------|
A|---------------------------------|
F|---------------------------------|
C|-9-9-9-9-9-9-9-9-9-9-9-9-9-9-9-9-|
G|-9-9-9-9-9-9-9-9-9-9-9-9-9-9-9-9-|
C|-9-9-9-9-9-9-9-9-9-9-9-9-9-9-9-9-|
pm:  . .   . .   .   . .   . .   .

D|-------------------------------------------|
A|-------------------------------------------|
F|-------------------------------------------|
C|-9-9-9-9-9-9-9/12-12-12-12-12-12-12-12-12--|
G|-7-7-7-7-7-7-7/10-10-10-10-10-10-10-10-10--|
C|-------------------------------------------|
pm:  . .   . .          .  .     .  .     .

D|---------------------------------|
A|---------------------------------|
F|---------------------------------|
C|-9-9-9-9-9-9-9-9-9-9-9-9-9-9-9-9-|
G|-9-9-9-9-9-9-9-9-9-9-9-9-9-9-9-9-|
C|-9-9-9-9-9-9-9-9-9-9-9-9-9-9-9-9-|
pm:  . .   . .   .   . .   . .   .

D|------------------|
A|------------------|
F|------------------|
C|-2----------------|
G|-2----------------|
C|-2----------------|

D|---------------------------------|
A|---------------------------------|
F|---------------------------------|
C|/9-9-9-9-9-9-9-9-9-9-9-9-9-9-9-9-|
G|/9-9-9-9-9-9-9-9-9-9-9-9-9-9-9-9-|
C|/9-9-9-9-9-9-9-9-9-9-9-9-9-9-9-9-|
pm:  . .   . .   .   . .   . .   .

D|--------------------|
A|--------------------|
F|--------------------|
C|-2-----2----5-----5-|
G|-2-----2----5-----5-|
C|-2-----2----5-----5-|

D|---------------------------------|
A|---------------------------------|
F|---------------------------------|
C|/9-9-9-9-9-9-9-9-9-9-9-----------|
G|/9-9-9-9-9-9-9-9-9-9-9-----------|
C|/9-9-9-9-9-9-9-9-9-9-9-----------|
pm:. .   . .   . .   .



Chorus:
D|-6-66-6-6---------------|
A|-5-55-5-5---------------|
F|------------------------|
C|------------------------|
G|------------------------|
C|----------0-5-4-0-2-1-0-|   X3

D|----------------|
A|----------------|
F|----------------|
C|----------------|
G|-50--1--2--0--4-|
C|-50--1--2--0--4-|

D|-6-66-6-6---------------|
A|-5-55-5-5---------------|
F|------------------------|
C|------------------------|
G|------------------------|
C|----------0-5-4-0-2-1-0-|   X3

D|----------------|
A|----------------|
F|----------------|
C|----------------|
G|-50--1--2--0--4-|
C|-50--1--2--0--4-|

First Chorus Ending:
D|-6-66-6-6---------------|
A|-5-55-5-5---------------|
F|------------------------|
C|------------------------|
G|------------------------|
C|----------0-5-4-0-2-1-0-|

Second Chorus Ending:
D|----------------|
A|----------------|
F|----------------|
C|----------------|
G|-50--5--4--0--3-|
C|-50--5--4--0--3-|


[VERSE]


Pre Chorus 2:
D|---------------------------------------|
A|---------------------------------------|
F|---------------------------------------|
C|-999-999-121212-121212-----------------|
G|-777-777-101010-101010-999-999-999-999-|
C|-----------------------999-999-999-999-|   X3
pm:..  ..  . .    . .    ..  ..  ..  ..

D|---------------------------------------|
A|---------------------------------------|
F|---------------------------------------|
C|-999-999-121212-121212-----------------|
G|-777-777-101010-101010-999-999-999-9---|
C|-----------------------999-999-999-9---|
pm:..  ..  . .    . .    ..  ..  ..


[CHORUS]


Bridge (USe a wah pedal on the octaves):
D|-----------------------------------------|
A|-----------------------------------------|
F|-12-12-12-12-12-12-12-12-----------------|
C|--x--x--x--x--x--x--x--x-5-----4-----8---|
G|-10-10-10-10-10-10-10-10-5-----4-----8---|
C|-------------------------5-----4-----8---|

D|-----------------------------------------|
A|-----------------------------------------|
F|-11-11-11-11-11-11-11-11-----------------|
C|--x--x--x--x--x--x--x--x-5-----4-----8---|
G|--9--9--9--9--9--9--9--9-5-----4-----8---|
C|-------------------------5-----4-----8---|

D|---------------------------------|
A|---------------------------------|
F|-4-4-4-4-4-4-4-4-----------------|
C|-x-x-x-x-x-x-x-x-5-----4-----8---|
G|-2-2-2-2-2-2-2-2-5-----4-----8---|
C|-----------------5-----4-----8---|

D|---------------------------------|
A|---------------------------------|
F|-8-8-8-8-8-8-8-8-----------------|
C|-x-x-x-x-x-x-x-x-----------------|
G|-6-6-6-6-6-6-6-6-----------------|
C|---------------------------------|



Breakdown:
D|---------------------------------|
A|---------------------------------|
F|---------------------------------|
C|-----------------5-----4-----8---|
G|-----------------5-----4-----8---|
C|-4-0-4-3-0-5-4-0-5-----4-----8---|

D|---------------------------------|
A|---------------------------------|
F|---------------------------------|
C|-----------------5-4---4---4-8---|
G|-----------------5-4---4---4-8---|
C|-4-0-4-3-0-5-4-0-5-4---4---4-8---|

D|---------------------------------|
A|---------------------------------|
F|---------------------------------|
C|-----------------5-----4-----8---|
G|-----------------5-----4-----8---|
C|-4-0-4-3-0-5-4-0-5-----4-----8---|

D|---------------------------------|
A|---------------------------------|
F|---------------------------------|
C|-----------------4-4-4-4-8-8-8-8-|
G|-----------------4-4-4-4-8-8-8-8-|
C|-4-0-4-3-0-5-4-0-4-4-4-4-8-8-8-8-|

D|---------------------------------|
A|---------------------------------|
F|---------------------------------|
C|---------------------------------|
G|-----------------0-0-0-0-3-3-3-3-|
C|-4-0-4-3-0-5-4-0-0-0-0-0-3-3-3-3-|   X4
pm:                . . . .



Pre Chorus 3:
D|-------------------------------------------|
A|-------------------------------------------|
F|-------------------------------------------|
C|-9-9-9-9-9-9-9/12-12-12-12-12-12-12-12-12--|
G|-7-7-7-7-7-7-7/10-10-10-10-10-10-10-10-10--|
C|-------------------------------------------|
pm:  . .   . .          .  .     .  .     .

D|---------------------------------|
A|---------------------------------|
F|---------------------------------|
C|-9-9-9-9-9-9-9-9-9-9-9-9-9-9-9-9-|
G|-9-9-9-9-9-9-9-9-9-9-9-9-9-9-9-9-|
C|-9-9-9-9-9-9-9-9-9-9-9-9-9-9-9-9-|
pm:  . .   . .   .   . .   . .   .

D|-------------------------------------------|
A|-------------------------------------------|
F|-------------------------------------------|
C|-9-9-9-9-9-9-9/12-12-12-12-12-12-12-12-12--|
G|-7-7-7-7-7-7-7/10-10-10-10-10-10-10-10-10--|
C|-------------------------------------------|
pm:  . .   . .          .  .     .  .     .

D|---------------------------------|
A|---------------------------------|
F|---------------------------------|
C|-9-9-9-9-9-9-9-9-9-9-9-9-9-9-9-9-|
G|-9-9-9-9-9-9-9-9-9-9-9-9-9-9-9-9-|
C|-9-9-9-9-9-9-9-9-9-9-9-9-9-9-9-9-|
pm:  . .   . .   .   . .   . .   .

D|---------------------------------------|
A|---------------------------------------|
F|---------------------------------------|
C|-999-999-------------------------------|
G|-777-777---------------999-999---------|
C|-----------------------999-999---------|
pm:..  ..                ..  ..

D|---------------------------------------|
A|---------------------------------------|
F|---------------------------------------|
C|-999-999-121212-121212-----------------|
G|-777-777-101010-101010-999-999---------|
C|-----------------------999-999---------|
pm:..  ..  . . .  . . .  ..  ..


[CHORUS]


Outro:
D|----------------|
A|----------------|
F|----------------|
C|----------------|
G|-50--1--2--0--4-|
C|-50--1--2--0--4-|

D|----------------|
A|----------------|
F|----------------|
C|----------------|
G|-50--5--4--0--3-|
C|-50--5--4--0--3-|

D|----------------|
A|----------------|
F|----------------|
C|----------------|
G|-50--1--2--0--4-|
C|-50--1--2--0--4-|

D|----------------|
A|----------------|
F|----------------|
C|----------------|
G|-50--5--4--0--3-|
C|-50--5--4--0--3-|

D|-6-66-6-6-|
A|-5-55-5-5-|
F|----------|
C|----------|
G|----------|
C|----------|
comments
We did not receive enough feedback on this tab! Please rate:
print report bad tab
1 2 3 4 5
I want to post or [tab]
guest
You may want to rate the tab now too:
select rating
Please do not post tabs as comments. Select "correction" instead!