Oops, an error
Loading. Please wait.

Roots Rock Riot Tab

5,003 views 3 this week
no commentswrite comment
1 2 3 4 5
please rate
add to favorites
launch autoscroll
font size
0
reset
how to read this tab
guitar tuner
Tab Pro tools
  • play this tab
  • loop segment
  • change instrument
  • show fretboard
  • metronome
×
Best way to learn
"Roots Rock Riot"
Autoscroll
slow
fast
+/-
esc
set tempo
stop
Difficulty
Tuning
intermediate
C# G# C# F# A# D#
Drop C#

Intro

---------------------------------------------------------------------------------------|
---------------------------------------------------------------------------------------|
---------------------------------------------------------------------------------------|
--555-444-777-666-3333-----------------5-5--4-4--7-7--6-6-3333-----555-444-------------|
--555-444-777-666-3333-<-2times--------5-5--4-4--7-7--6-6-3333-----555-444-------------|
--555-444-777-666-3333-----------------5-5--4-4--7-7--6-6-3333-----555-444-77p-6-33p---|


Verse

0.10 - 0.30
--------------------------|
--------------------------|
--------------------------|
--4h5-44--44h5-4s~~~~-----|
--4h5-44--44h5-4s~~~~-----|
--4h5-44--44h5-4s~~~~-----|
So much Blood.........


Bridge 0.30 - 0.35


---------------------------------------------|
--7-----8------9------10-----11-----12-------|
--9^11--10^12--11^13--12^13--13^15--14^16----|
---------------------------------------------|
---------------------------------------------|
---------------------------------------------|


Ref  0.35-

------------------------------------------------------------|
------------------------------------------------------------|
------------------------------------------------------------|
--4h5-44--44h5-4-44h5-2-------------------------------------|
--4h5-44--44h5-4-44h5-2--3 times----------------------------|
--4h5-44--44h5-4-44h5-2------------555-444-777-666-3333-----|

-------------------------------------------------------------|
-------------------------------------------------------------|
-------------------------------------------------------------|
--4h5-44--44h5-4-44h5-2--------------------------------------|
--4h5-44--44h5-4-44h5-2--3 times-----------------------------|
--4h5-44--44h5-4-44h5-2------------555-444-777-666-3333------|

Second Guitar
-------------------------------------------------------------|
--1818-16h18-1818-16s~~~~~~----------------------------------|
-------------------------------------------------------------|
-------------------------------------------------------------|
-------------------------------------------------------------|
-------------------------------------------------------------|

Bridge 0.55
---------------------------------------------------------------|
---------------------------------------------------------------|
---------------------------------------------------------------|
---55-44-77-66-3-3---------------------------------------------|
---55-44-77-66-3-3---------------------------------------------|
---55-44-77-66-3-3---------------------------------------------|


---------------------------------------------------------------|
---------------------------------------------------------------|
---------------------------------------------------------------|
--4h5-44--44h5-4s~~~~------------------------------------------|
--4h5-44--44h5-4s~~~~------------------------------------------|
--4h5-44--44h5-4s~~~~------------------------------------------|


Verse 1.05

------------------------|
------------------------|
------------------------|
--4h5-44--44h5-4s~~~~---|
--4h5-44--44h5-4s~~~~---|
--4h5-44--44h5-4s~~~~---|

Second guitar
------------------|
---7----7---------|
---9^11-9^11------|
------------------|
------------------|
------------------|


Bridge 1.16
---------------------------------------------------|
--7-----8------9------10-----11-----12-------------|
--9^11--10^12--11^13--12^13--13^15--14^16----------|
---------------------------------------------------|
---------------------------------------------------|
---------------------------------------------------|


Ref 1.21
-------------------------------------------------------|
-------------------------------------------------------|
-------------------------------------------------------|
--4h5-44--44h5-4-44h5-2--------------------------------|
--4h5-44--44h5-4-44h5-2--------------------------------|
--4h5-44--44h5-4-44h5-2-----555-444-777-666-3333-------|


--------------------------------------------------|
--------------------------------------------------|
--------------------------------------------------|
--4h5-44--44h5-4-44h5-2---------------------------|
--4h5-44--44h5-4-44h5-2---------------------------|
--4h5-44--44h5-4-44h5-2-----555-444-777-666-3333--|

Second guitar
-------------------------------------------------------------|
--1818-16h18-1818-16s~~~~~~----------------------------------|
-------------------------------------------------------------|
-------------------------------------------------------------|
-------------------------------------------------------------|
-------------------------------------------------------------|


Bridge 1.40
---------------------------------|
---------------------------------|
---------------------------------|
--4--5h4---5h4--54---5h4--54-----|
--4--5h4---5h4--54---5h4--54-----|
--4--5h4---5h4--54---5h4--54-----|


Solo 1.48
--------------------------------------------------------|
---------------------3p---------------------------------|
---------------------3p---------------------------------|
---------------------3p---------------------------------|
--------3---3-2222--------------------------------------|
--5-0-5---5-------0-------------------------------------|


------------------------------------------------------------|
------------------------------------------3p----------------|
------------------------------------------3p----------------|
------------------------------------------3p----------------|
--------3---3-2222------------3---3-222---------------------|
--5-0-5---5-------0000--5-0-5---5-------0-------------------|

------------------------------------------------------|
------------------------------------------------------|
------------------------------------------------------|
--4--5h4---5h4--54---5h4--54--------------------------|
--4--5h4---5h4--54---5h4--54--------------------------|
--4--5h4---5h4--54---5h4--54----555-444-777-666-3333--|

----------------------------------------------------|
----------------------------------------------------|
----------------------------------------------------|
--4h5-44--44h5-4-44h5-2-----------------------------|
--4h5-44--44h5-4-44h5-2-----------------------------|
--4h5-44--44h5-4-44h5-2-----555-444-777-666-3333----|

-----------------------------------------------------------|
-----------------------------------------------------------|
-----------------------------------------------------------|
--555-444-777-666-3333-----5-5--4-4--7-7--6-6-3333--4s~~~--|
--555-444-777-666-3333-----5-5--4-4--7-7--6-6-3333--4s~~~--|
--555-444-777-666-3333-----5-5--4-4--7-7--6-6-3333--4s~~~--|
comments
We did not receive enough feedback on this tab! Please rate:
print report bad tab
1 2 3 4 5
I want to post or [tab]
guest
You may want to rate the tab now too:
select rating
Please do not post tabs as comments. Select "correction" instead!