Oops, an error
Loading. Please wait.

Stand For Something Bass Tab

1,322 views 1 this week
no commentswrite comment
1 2 3 4 5
please rate
add to favorites
launch autoscroll
font size
0
reset
guitar tuner
Autoscroll
slow
fast
+/-
esc
set tempo
stop
Help us to improve Ultimate-Guitar.com Take our survey!
×
Author
Difficulty
Tuning
intermediate
C G C F A D
-------------------------------------------------------------------------------
			  STAND FOR SOMETHING - Skindred
-------------------------------------------------------------------------------

Tabbed By : MisterMushroom
e-mail: lemons_are_cool@hotmail.co.uk

Tuning: CGCF

FIRST OFF GUYS, I KNOW THIS ISN'T PERFECT, SO DON'T GO SPAMMING ME WITH OOOH IT'S WRONG
IT'S WRONG. If you have any corrections, email them to me or comment on this please :)
I've given it my best shot, and even if it's a bit wrong, it's still a basis for other 
people to work from, right?


INTRO [bass comes in at 0:21]
F|----------------|
C|1010101010101010|
G|----------------|
C|----------------|

[SYNTH]

PRE-VERSE
F|------------------------------|
C|------------------------------|
G|------------------------------|
C|0-1-0-6\1~~6-6-6-0-0-0-0-0-0-0| x3

F|------------------------|
C|------------------------|
G|------------------------|
C|0-1-0-6\1~~6-6-6-0-0-0-0|

VERSE 1
F|----------|
C|----------|
G|----------|
C|3-5-0~~0-0| x4

F|------------------------------|
C|------------------------------|
G|----------/8-8-8-8-4-4-4-4-4-4|
C|3-5-0~~0-0--------------------| x3

F|----------------------|
C|----------------------|
G|----------/8-8-8-8-8-4|
C|3-5-0~~0-0------------|

CHORUS
F|----------------------------------------------------------------|
C|----------------------------------------------------------------|
G|----------------------------------------------------------------|
C|0~0~0~0~3~3~3~3~8~8~8~8~5~5~5~5~0~0~0~0~3~3~3~3~8~8~8~8--8833555|

F|----------------------------------------------------------------|
C|----------------------------------------------------------------|
G|----------------------------------------------------------------|
C|00000000333333338888888855555555--0~0~0~3~3~3~3~8~8~8~8--8833555|

PRE-VERSE
F|------------------------------|
C|------------------------------|
G|------------------------------|
C|0-1-0-6\1~~6-6-6-0-0-0-0-0-0-0| x4

VERSE 2
F|-----------------------------------------|
C|-----------------------------------------|
G|--------------151515151212121210101010888|
C|6\1~~0-3-1-0~~---------------------------| x2

F|-----------------------------------------|
C|-----------------------------------------|
G|-----------------------------------------|
C|12-12-12-15-15-12-12-12-9-9-9-12-12-9-9-9| x4

CHORUS
F|----------------------------------------------------------------|
C|----------------------------------------------------------------|
G|----------------------------------------------------------------|
C|0~0~0~0~3~3~3~3~8~8~8~8~5~5~5~5~0~0~0~0~3~3~3~3~8~8~8~8--8833555|

F|----------------------------------------------------------------|
C|----------------------------------------------------------------|
G|----------------------------------------------------------------|
C|00000000333333338888888855555555--0~0~0~3~3~3~3~8~8~8~8--8833555|

PRE-VERSE
F|------------------------------|
C|------------------------------|
G|------------------------------|
C|0-1-0-6\1~~6-6-6-0-0-0-0-0-0-0| x3

F|------------------------|
C|------------------------|
G|------------------------|
C|0-1-0-6\1~~6-6-6-0-0-0-0|

VERSE 3
F|----------|
C|----------|
G|----------|
C|3-5-0~~0-0| x8

PRE-CHORUS
F|-----------------------------------------|
C|-----------------------------------------|
G|-----------------------------------------|
C|/8888888888881010101088888888888812121212|

CHORUS
F|----------------------------------------------------------------|
C|----------------------------------------------------------------|
G|----------------------------------------------------------------|
C|--0~0~0~3~3~3~3~8~8~8~8~5~5~5~5~0~0~0~0~3~3~3~3~8~8~8~8--8833555|

F|----------------------------------------------------------------|
C|----------------------------------------------------------------|
G|----------------------------------------------------------------|
C|0000000033333333888888885555555500000000333333338888888855555555|

F|-----------------------------------------------------------------|
C|-----------------------------------------------------------------|
G|-----------------------------------------------------------------|
C|00000000333333338888888855555555000000003333333388888888--8833555|

| /  slide up
| \  slide down
| h  hammer-on
| p  pull-off
| ~  vibrato
| +  harmonic
| x  Mute note
===============================================================================
Suggest correction
What's this?
You can suggest a correction to this tab. Community and Mods will review your correction and vote to approve or reject it.
comments
We did not receive enough feedback on this tab! Please rate:
print report bad tab
1 2 3 4 5
guest
You may want to rate the tab now too:
select rating
Please do not post tabs as comments. Select "correction" instead!