Oops, an error
Loading. Please wait.

Trouble Tab

5,777 views 3 this week
no commentswrite comment
1 2 3 4 5
accurate
x 7
add to favorites
launch autoscroll
font size
0
reset
how to read this tab
guitar tuner
Tab Pro tools
  • play this tab
  • loop segment
  • change instrument
  • show fretboard
  • metronome
Autoscroll
slow
fast
+/-
esc
set tempo
stop
Contributor
Difficulty
Tuning
intermediate
C G C F A D
*********
I resolve to update this tab and make ALL correction soon.
*********


Tuning = Drop C


INTRO (just listen for the timing throughout the song)

D|----------------------------------------------------|
A|----------------------------------------------------|
F|----------------------------------------------------|
C|----------------------------------------------------|
G|----------------------------------------------------|
C|-3p0-00000000000000-33333333-22222h3p2p0------------| x4

VERSE

PM . . . . . . .   Heavy effect / pinch
D|---------------/-----------------------|
A|---------------/-----------------------|
F|-----------0---/-x2--------------------|
C|-------0-2---2-/-----------------------|
G|-----2---------/-----------------------|
C|-0-0-----------/----3**3**~-2**2**~----| x2

"Tell this..."       "...Enemies..."


     light strumming here
D|----------------------------------------------------|
A|----------------------------------------------------|
F|----------------------------------------------------|
C|----------------------------------------------------|
G|--0----------------3--------2-----------------------|
C|--0-00000000000000-3-333333-2-222222----------------|

"Everything will be fine ..."

D|--------------------------------------------|
A|--------------------------------------------|
F|--------------------------------------------|
C|--------------------------------------------|
G|--0----------------3-----------2--2~~-------|
C|--0-00000000000000-3-333333----2--2~~-------|

"Now I'm asking you ..."        "WARNING!"


PRECHORUS

D|------------------------------------------------------|
A|----------6-----------6-----------6-------------------|
F|----------7-----------7-----------7-------------------|
C|----------7-----------7-----------7-------------------|
G|-3p0--xx--5--3p0--xx--5--3p0--xx--5-----3-3-3---------|
C|-3p0--xx-----3p0--xx-----3p0--xx--------3-3-3---------|


D|------------------------------------------------------|
A|----------6-----------6-----------6-------------------|
F|----------7-----------7-----------7-------------------|
C|----------7-----------7-----------7-------------------|
G|-3p0--xx--5--3p0--xx--5--3p0--xx--5-----2-2~~~~-------|
C|-3p0--xx-----3p0--xx-----3p0--xx--------2-2~~~~-------|

CHORUS (unsure about this part but here it goes)

D|--1st time and 3rd time--------------/---2nd time and 4th time-----------|
A|-------------------------------------/-----------------------------------|
F|-------------------------------------/-----------------------------------|
C|-----------33-3333-------------------/----------33-3333------------------|
G|--00-0000--11-1111--33-3333--55-5555-/-00-0000--11-1111-33-3333--22------|
C|--00-0000-----------33-3333--55-5555-/-00-0000----------33-3333--22-xxxx-|

"Trouble's what you want"                "Trouble's what you seek"
"Trouble's what you want"                "Trouble's what you need"


On the little build-up to the next verse, pick slide UP the neck slowly then back DOWN 
slowly

VERSE

PRECHORUS

CHORUS


BRIDGE (also a little unsure on this)

D|-------------------------------------/--------------------------------|
A|-------------------------------------/--------------------------------|
F|-------------------------------------/--------------------------------|
C|-------------------------------------/--------------------------------|
G|-------------------------------------/--------------------------3p2h3-|
C|--3p0-000-00-000--33-333--3p2-222p0--/--3p0-000-00-000--0h3-33--3p2h3-|

D|--------------------------------------|
A|--------------------------------------|
F|--------------------------------------|
C|--------------------------------------|
G|--3p0-000-00-000--33-333--3p2-222p0---|
C|--3p0-000-00-000--33-333--3p2-222p0---| a few times upto the break

repeat this a few times until next chorus


FINAL CHORUS

thankyou .. hope you enjoy
comments
print report bad tab
I want to post or [tab]
guest
You may want to rate the tab now too:
select rating
Please do not post tabs as comments. Select "correction" instead!