Oops, an error
Loading. Please wait.

Daily Routine Tab

153 views 1 this week
no commentswrite comment
1 2 3 4 5
please rate
add to favorites
launch autoscroll
font size
0
reset
how to read this tab
guitar tuner
Tab Pro tools
  • play this tab
  • loop segment
  • change instrument
  • show fretboard
  • metronome
×
Best way to learn
"Daily Routine"
Autoscroll
slow
fast
+/-
esc
set tempo
stop
Difficulty
novice
SK!NK - Daily Routine

100 % accurate

     intro
E |------------------------------------------------------------------|
B |----------2-2-2-2-------------------------2-2-2-2-----------------|
G |--1-1-1-1-2-2-2-2-3-3-3-3-2-2-2-2-1-1-1-1-2-2-2-2-3-3-3-3-2-------|
D |--2-2-2-2-2-2-2-2-4-4-4-4-3-3-3-3-2-2-2-2-2-2-2-2-4-4-4-4-3-------|
A |--2-2-2-2---------4-4-4-4-3-3-3-3-2-2-2-2---------4-4-4-4-3-------|
E |------------------------------------------------------------------|


     verse
E |------------------------------------------------------------------|
B |----------2-2-2-2-------------------------2-2-2-2-----------------|
G |--1-1-1-1-2-2-2-2-3-3-3-3-2-2-2-2-1-1-1-1-2-2-2-2-3--3-3-2--------|
D |--2-2-2-2-2-2-2-2-4-4-4-4-3-3-3-3-2-2-2-2-2-2-2-2-4--4-4-3--------|
A |--2-2-2-2---------4-4-4-4-3-3-3-3-2-2-2-2---------4--4-4-3--------|
E |------------------------------------------------------------------|


     refrain
E |-------------------|                                              ----
B |------333311111111-|                                                  |
G |--1111333300000000-|  x4                                              |
D |--2222333322222222-|                                                  |
A |--2222----33333333-|                                                  |
E |-------------------|                                                  |-- refrain
                                                                         |
E |------------------------------------------------------------------|   |
B |----------2-2-2-2-------------------------2-2-2-2-----------------|   |
G |--1-1-1-1-2-2-2-2-3-3-3-3-2-2-2-2-1-1-1-1-2-2-2-2-3-3-3-3-2-------|   |
D |--2-2-2-2-2-2-2-2-4-4-4-4-3-3-3-3-2-2-2-2-2-2-2-2-4-4-4-4-3-------|   |
A |--2-2-2-2---------4-4-4-4-3-3-3-3-2-2-2-2---------4-4-4-4-3-------|   |
E |------------------------------------------------------------------| --



     verse
E |------------------------------------------------------------------|
B |----------2-2-2-2-------------------------2-2-2-2-----------------|
G |--1-1-1-1-2-2-2-2-3-3-3-3-2-2-2-2-1-1-1-1-2-2-2-2-3--3-3-2--------|
D |--2-2-2-2-2-2-2-2-4-4-4-4-3-3-3-3-2-2-2-2-2-2-2-2-4--4-4-3--------|
A |--2-2-2-2---------4-4-4-4-3-3-3-3-2-2-2-2---------4--4-4-3--------|
E |------------------------------------------------------------------|


     refrain
E |-------------------|                                              
B |------333311111111-|                                                  
G |--1111333300000000-|  x4                                              
D |--2222333322222222-|                                                  
A |--2222----33333333-|                                                  
E |-------------------|                                                  
                                                                         
E |------------------------------------------------------------------|   
B |----------2-2-2-2-------------------------2-2-2-2-----------------|   
G |--1-1-1-1-2-2-2-2-3-3-3-3-2-2-2-2-1-1-1-1-2-2-2-2-3-3-3-3-2-------|   
D |--2-2-2-2-2-2-2-2-4-4-4-4-3-3-3-3-2-2-2-2-2-2-2-2-4-4-4-4-3-------|   
A |--2-2-2-2---------4-4-4-4-3-3-3-3-2-2-2-2---------4-4-4-4-3-------|   
E |------------------------------------------------------------------|


     verse
E |------------------------------------------------------------------|
B |----------2-2-2-2-------------------------2-2-2-2-----------------|
G |--1-1-1-1-2-2-2-2-3-3-3-3-2-2-2-2-1-1-1-1-2-2-2-2-3--3-3-2--------|
D |--2-2-2-2-2-2-2-2-4-4-4-4-3-3-3-3-2-2-2-2-2-2-2-2-4--4-4-3--------|
A |--2-2-2-2---------4-4-4-4-3-3-3-3-2-2-2-2---------4--4-4-3--------|
E |------------------------------------------------------------------|


     refrain
E |-------------------|                                              
B |------333311111111-|                                                  
G |--1111333300000000-|  x4                                              
D |--2222333322222222-|                                                  
A |--2222----33333333-|                                                  
E |-------------------|                                                  
                                                                         
E |------------------------------------------------------------------|   
B |----------2-2-2-2-------------------------2-2-2-2-----------------|   
G |--1-1-1-1-2-2-2-2-3-3-3-3-2-2-2-2-1-1-1-1-2-2-2-2-3-3-3-3-2-------|   
D |--2-2-2-2-2-2-2-2-4-4-4-4-3-3-3-3-2-2-2-2-2-2-2-2-4-4-4-4-3-------|   
A |--2-2-2-2---------4-4-4-4-3-3-3-3-2-2-2-2---------4-4-4-4-3-------|   
E |------------------------------------------------------------------|


     outro
E |----------------------------------|
B |----------------------------------|
G |--3-3-3-3-2-2-2-2-1-1-1-1-1-1-1-1-|  x2
D |--4-4-4-4-3-3-3-3-2-2-2-2-2-2-2-2-|
A |--4-4-4-4-3-3-3-3-2-2-2-2-2-2-2-2-|
E |----------------------------------|

     slow down
E |------------------0-------|
B |------------------0-------|
G |--3-3-3---2-2-2---1-------|
D |--4-4-4---3-3-3---2-------|
A |--4-4-4---3-3-3---2-------|
E |------------------0-------|


that`s it, one of the most simple songs in the world.
comments
We did not receive enough feedback on this tab! Please rate:
print report bad tab
1 2 3 4 5
I want to post or [tab]
guest
You may want to rate the tab now too:
select rating
Please do not post tabs as comments. Select "correction" instead!