Oops, an error
Loading. Please wait.

Endvisioned Tab

691 views 3 this week
no commentswrite comment
1 2 3 4 5
accurate
x 3
add to favorites
launch autoscroll
font size
0
reset
how to read this tab
guitar tuner
Tab Pro tools
  • play this tab
  • loop segment
  • change instrument
  • show fretboard
  • metronome
×
Best way to learn
"Endvisioned"
Autoscroll
slow
fast
+/-
esc
set tempo
stop
Contributor
okay. so i think that this is right sounds good to me. 

Artist - Skinless
Song   - Endvisioned
Album  - Trample the Weak, Hurdle the Dead
Tuning - Lower than standard but higher than A. 
          Whatever sounds best to you.

.- Palm mute
/- Slide down
\- Slide up
_- tremolo pick (Thats and underscore lol)
h- hammer on

|--------------------------------------------------------------------------|
|--------------------------------------------------------------------------|
|--------------------------------------------------------------------------|
|--------------------------------------------------------------------------|
|---7--5--44-------7--5--4--------5--7/---7--5--44---9/2---7--5--4----5-7--|
|---5--3--22-------5--3--2--------3--5/---5--3--22---7/1---5--3--2----3-5--|
    .  .  ..       .  .                   .  .  ..         .  .  

|------------------------------------------------|
|------------------------------------------------|
|------------------------------------------------| x2
|------------------------------------------------|
|---5-3-2-3-222222222222-5-3-2-3-222222-32-5555--|
|---5-3-2-3-222222222222-5-3-2-3-222222-32-5555--|
    . . . . ............ . . . . ...... .. ....
                (not
            tremolo pick) 

|-----------------------------------------------------|
|-----------------------------------------------------|
|-----------------------------------------------------| 
|--------------35----36--------------35----36---------|
|---5-3-2-3-22-13-22-14-222-54323-22-13-22-14-222532--|
|---5-3-2-3-22----22----222-54323-22----22----222532--|     
            .. .  .. .  ...       .. .  .. .  .....

|-------------------------------------------|
|-------------------------------------------|
|-------------------------------------------|
|------35----36--------------35----36-------|
|---22-13-22-14-222-54323-22-13-22-14-54323-|
|---22----22----222-54323-22----22----54323-|
    .. .  .. .  ...       .. .  .. .

|-------------------------------------------|    |------------|
|-------------------------------------------|    |dont palm---|
|-------------------------------------------|x2  |mute on 2nd-|
|-------------------------------------------|    |time--------|
|--222222222222-5-3-2-3-222222-32-5555-5323-|    |-5323-------|
|--222222222222-5-3-2-3-222222-32-5555-5323-|    |-5323-------|
   ............ . . . . ...... .. .... ....

|----------------------------------------------|
|----------------------------------------------|
|----------------------------------------------|
|-----35----36--------------35----36-----------|
|--22-13-22-14-222-54323-22-13-22-14-222222-5--|
|--22----22----222-54323-22----22----222222-3--|
   .. .  .. .  ...       .. .  .. .  ......

|-----------------------------------------------|
|-----------------------------------------------|
|-----------------------------------------------|
|-----35----36--------------35----36------------|
|--22-13-22-14-222-54323-22-13-22-13-222-54323--|
|--22----22----222-54323-22----22----000-54323--|
   .. .  .. .  ...       .. .  .. .  ...

|--------------------------------------------------|
|--------------------------------------------------|
|--------------------------------------------------|
|--------------------------------------------------|
|--4----------------------5-4------------------5-4-|
|--2-22222222222222222222-3-2-2222222222222222-3-2-|
     ____________________ .    ________________. 
    palm mute tremolo pick      palm mute t.p.
    not hard to figure 
    timing for right here

|------------------------------------------------------|  |
|------------------------------------------------------|  |
|------------------------------------------------------|  |
|------------------------------------------------------|  |
|-25322h3-2-25323332-25323-710977109/(all the way-)----|  |
|-25322h3-2-25323332-25323-710977109/(down the neck)---|  |
                ___                                       |---- Play twice 
|----------------------------------------|                |     
|----------------------------------------|                |
|----------------------------------------|                |
|----------------------------------------|                |
|-2-25323-2-25323332-25323-9----11/1211--|                |
|-2-25323-2-25323332-25323-7-000-9/10-9--|                |
                ___          ___
                             ...

|----------------------------------------------------------------|
|----------------------------------------------------------------|
|----------------------------------------------------------------|
|----------------------------------------------------------------|
|-22222222-9------76-22222222-9------11/1211-22222222-9------76--|
|-22222222-7-0000-54-22222222-7-0000--9/10-9-22222222-7-0000-54--|
  ........   ____    ........   ____         ........   ____
             ....               ....                    ....


|--------------------------------------------------|
|--------------------------------------------------|
|--------------------------------------------------| 3x
|--------------------------------------------------|
|--9-----11/1211-9------76-9-----11/1211-9------76-|
|--7-0000-9/10-9-7-0000-54-7-0000-9/10-9-7-0000-54-|
     ____          ____      ____          ____
     ....          ....      ....          ....

|---------------------------------------|     |
|---------------------------------------|     |
|---------------------------------------|     |
|---------------------------------------|     |
|-2-25322h3-2-25323332-25323-710977109/-|     |
|-2-25322h3-2-25323332-25323-710977109/-|     |
                  ___                         |
                                              |----- play twice
|-----------------------------------------|   |
|-----------------------------------------|   |
|-----------------------------------------|   |
|-----------------------------------------|   |
|-2-253223-2-25323332-25323-9----11/1211--|   |
|-2-253223-2-25323332-25323-7-000-9/10-9--|   |
  . ...... . ....___. .....   ...
                 ...

|-------------------------------------------------------------|
|-------------------------------------------------------------|
|-------------------------------------------------------------|
|-------------------------------------------------------------|
|--22222222-9-----76-22222222-9----11/1211-22222222-9-----76--|
|--22222222-7-000-54-22222222-7-000-9/10-9-22222222-7-000-54--|
   ........   ___    ........   ___        ........   ___
              ...               ...                   ...

|---------------------------|
|---------------------------|
|---------------------------|x4
|---------------------------|
|--9-----11/1211-9------76--|
|--7-0000-9/10-9-7-0000-54--|
     ____          ____
     ....          ....

|----------------------------------------------------|
|----------------------------------------------------|
|----------------------------------------------------|
|-------------3-------------3-6-3-4---------------3--|
|----------------------------------------------------|
|--0-1-2-0-1-2-----0-1-2-0-1-----------0-1-2-0-1-2---|
   _________________________________________________

|------------------------|
|------------------------|
|------------------------|
|------------------------|
|--8------6------465-22--|
|--6-0000-4-0000-243-00--|
     ____   ____         
     ....   ....     ..

|----------------------------------------------------|
|----------------------------------------------------|
|----------------------------------------------------|
|-------------3-------------3-6-3-4---------------3--|
|----------------------------------------------------|
|--0-1-2-0-1-2-----0-1-2-0-1-----------0-1-2-0-1-2---|
   _________________________________________________

|------------------------------------------------|
|------------------------------------------------|
|------------------------------------------------|
|------------------------------------------------|
|--8------6------465------8------6------46-2222--|
|--6-0000-4-0000-243-0000-6-0000-4-0000-24-0000--|
     ____   ____     ____   ____   ____    ....
     ....   ....     ....   ....   ....

|---------------------------------------------------|
|---------------------------------------------------|
|---------------------------------------------------|
|---------------------------------------------------|
|--8------6------465------8------6------46-2-2-2-2--|
|--6-0000-4-0000-243-0000-6-0000-4-0000-24-0-0-0-0--|
     ____   ____     ____   ____   ____    . . . .
     ....   ....     ....   ....   ....

|--------------------------------------|
|--------------------------------------|
|--------------------------------------|
|--5---68757---5--875---5875-431-3--1--|
|--3---36535---3--653---3653----4------|
|---000-----000-0----000---------------|
    ...     ... .    ...

|---------------------------------------|
|---------------------------------------|
|---------------------------------------|
|--5---68757---5-875---5765-431-3-1-3---|
|--3---36535---3-653---3543----4--------|
|---000-----000-0---000-----------------|
    ...     ... .   ...

|-----------------------------------------------|
|-----------------------------------------------|
|-----------------------------------------------|
|--5------68757------5--875------5875-431-3--1--|
|--3------36535------3--653------3653----4------|
|---000000-----000000-00---000000---------------|
    ......     ...... ..   ......

|-------------------------------------------------|
|-------------------------------------------------|
|-------------------------------------------------|
|--5------68757------5--875------5765-431-3-1-3---|
|--3------36535------3--653------3543----4--------|
|---000000-----000000-00---000000-----------------|
    ......     ...... ..   ......

|----------------------------------------------------|
|----------------------------------------------------|
|----------------------------------------------------|
|-------------3-------------3-6-3-4---------------3--|
|----------------------------------------------------|
|--0-1-2-0-1-2-----0-1-2-0-1-----------0-1-2-0-1-2---|
   ________________________________________________

|------------------------|
|------------------------|
|------------------------|
|------------------------|
|--8------6------465-22--|
|--6-0000-4-0000-243-00--|
     ____   ____         
     ....   ....     ..

|----------------------------------------------------|
|----------------------------------------------------|
|----------------------------------------------------|
|-------------3-------------3-6-3-4---------------3--|
|----------------------------------------------------|
|--0-1-2-0-1-2-----0-1-2-0-1-----------0-1-2-0-1-2---|
   __________________________________________________

|------------------------------------------------|
|------------------------------------------------|
|------------------------------------------------|3x
|------------------------------------------------|
|--8------6------465------8------6------46-2222--|
|--6-0000-4-0000-243-0000-6-0000-4-0000-24-0000--|
     ____   ____     ____   ____   ____    ....
     ....   ....     ....   ....   ....

|------------------------------------------------|
|------------------------------------------------|
|------------------------------------------------|
|------------------------------------------------|
|--8------6------465------8------6------4-6-5----|
|--6-0000-4-0000-243-0000-6-0000-4-0000-2-4-3----|
     ____   ____     ____   ____   ____    
     ....   ....     ....   ....   ....

|---------------------------------------------------------------------------|
|---------------------------------------------------------------------------|
|---------------------------------------------------------------------------|
|---------------------------------------------------------------------------|
|--5323-2---------------------2------------------------2--------------------|
|--5323-2-2-------------------2-2----------------------2-2------------------|
          ____________________  _______________________  ___________________
          ....................  .......................  ...................

|-----------------|
|-----------------|
|-----------------|
|-----------------|
|--9-----11/1211--|
|--7-0000-9/10-9--|

|------------------------------------------------------|
|------------------------------------------------------|
|------------------------------------------------------|
|------------------------------------------------------|
|-2-----------------------------------------9------76--|
|-2-2---------------------------------------7-0000-54--|
    ________________________________________  ____
    ........................................  ....
         (Tremolo pick extremely fast)

|----------------------------------------------------------|
|----------------------------------------------------------|
|----------------------------------------------------------|
|----------------------------------------------------------|
|-2-----------------------------------------9-----11/1211--|
|-2-2---------------------------------------7-0000-9/10-9--|
    ________________________________________  ____
    ........................................  ....
          (Tremolo pick extremely fast)

|---------------------|
|---------------------|
|---------------------|
|----3-----5-----7----|
|---------------------|----You should be able to time this part. Its easy.
|-2-----3-----5-------|
  ___   ___   ___

|---------------------------------------------------|
|---------------------------------------------------|
|---------------------------------------------------|
|---------------------------------------------------|
|--9-----76-22222222-9----11/1211-22222222-9----76--|
|--7-000-54-22222222-7-000-9/10-9-22222222-7-00-54--|
     ___    ........   ___        ........   
     ...               ...                   ..

|------------------------------------------|
|------------------------------------------|
|------------------------------------------|
|------------------------------------------|
|--22222222-9----11/1211-22222222-9----76--|
|--22222222-7-000-9/10-9-22222222-7-00-54--|
   ........   ___        ........   ..
              ...      

|---------------------------|    |----|
|---------------------------|    |----| On fourth time end
|---------------------------| 4x |----| on power chord.
|---------------------------|    |----|
|--9-----11/1211-9------76--|    |--9-|
|--7-0000-9/10-9-7-0000-54--|    |--7-|
     ____          ____
     ....          ....

Thats it. Have fun.
comments
We did not receive enough feedback on this tab! Please rate:
print report bad tab
1 2 3 4 5
I want to post or [tab]
guest
You may want to rate the tab now too:
select rating
Please do not post tabs as comments. Select "correction" instead!