Oops, an error
Loading. Please wait.

Foreshadowing Our Demise Tab

1,073 views 1 this week
no commentswrite comment
1 2 3 4 5
excellent!
x 3
add to favorites
launch autoscroll
font size
0
reset
how to read this tab
guitar tuner
Autoscroll
slow
fast
+/-
esc
set tempo
stop
Help us to improve Ultimate-Guitar.com Take our survey!
×
Contributor
dudeboy386 2,423
band:skinless
album: foreshadowing our demise 2001
song: foreshadowing our demise

   0:09
b |--------------------------------------|
f#|--------------------------------------|
d |------------------------------(--6^)--| (Pinch Harmonics)
a |-----7-6-----5-4-----7-6-5-4--(5---)--|
e |-5-4-5-4-5-4-3-2-5-4-5-4-3-2----------|
B |-3-2-----3-2-----3-2------------------|
    . . . . . . . . . . . . . .

   0:16
b |-------------------------------------------------|
f#|-------------------------------------------------|
d |-------------------------------------------------|
a |-------------------------------------------------|
e |-------------5-5-5-4-4-4-------------3-3-3-2-2-2-|
B |-3-3-3-2-2-2-------------3-3-3-2-2-2-------------|


   0:16 (continued)
b |--------------------------------------------------|
f#|--------------------------------------------------|
d |--------------------------------------------------|
a |-------------------------------------5-5-5-4-4-4--|
e |-------------5-5-5-4-4-4-3-3-3-2-2-2--------------|
B |-3-3-3-2-2-2--------------------------------------|

   0:46
b |--------------------------------|
f#|--------------------------------|
d |-2-2-2-2-2-2-2-2-2-2------------|
a |--------------------------------|
e |-----------------------3-4-2-3--|
B |-----------------------1-2-0-1--|
                          . . . .

   1:02
b |--------------------|
f#|--------------------|
d |-(--6^)-------------|
a |-(5---)-------------| (Pinch Harmonics)
e |-------3-4-3-4-3-2--|
B |-------1-2-1-2-1-0--|
          . . . . . .

   1:21
b |------------------------------|
f#|------------------------------|
d |------------------------------|
a |------------------------------|
e |-2---------4-3-3-2-3---4---2--|
B |-0---------2-1-1-0-1---2---0--|


   1:29
b |-------------------------------------|
f#|-7-7-7-7-7-7-5-5-5-7-7-7-5-5-5-5-5-5-|
d |-------------------------------------|
a |-------------------------------------|
e |-------------------------------------|
B |-------------------------------------|


   1:29 (continued)
b |--------------------------------------------------------|
f#|--------------------------------------------------------|
d |-6-6-6-6-6-6-4-4-4-6-6-6-4-4-4-4-4-4--------------------|
a |-------------------------------------5-5-5-5-5-5-5-5-5--|
e |--------------------------------------------------------|
B |--------------------------------------------------------|


   1:45
b |--------------------------------------------------|
f#|--------------------------------------------------|
d |--------------------------------------------------|
a |--------------------------------------------------|
e |-2------3-2---------4-3-3-2-3---4---2------2-3-2--|
B |-0------1-0---------2-1-1-0-1---2---0-------------|
           .

   1:56
b |-----------|
f#|-----------|
d |-----------|
a |-----------|
e |-2---------|
B |-0---------|


   2:02
b |-----------------------------|
f#|-----------------------------|
d |-----------------------------|
a |-------------7-6-------------|  UUUHHHH!
e |-5-2-3-4-5-4-5-4-5-2-3-4-5---|
B |-3-0-1-2-3-2-----3-0-1-2-3---|
    . . . . . .     . . . .

   2:06
b |------------------|
f#|------------------|
d |------------------|
a |-------------7-6--|
e |-5-2-3-4-5-4-5-4--|
B |-3-0-1-2-3-2------|
    . . . . . .

   2:17
b |--------------------------------------------------|
f#|--------------------------------------------------|
d |--------------------------------------------------|
a |--------------------------------------------------|
e |-5-4-2-2-4-2-2-2-5-5-5---5-5-5---4-4-4---2-2-2----|
B |-3-2-0-0-2-0-0-0-------2-------2-------0-------0--|
        . .   . . .       .       .       .       .

   2:29
b |--------------------------------------------------|
f#|--------------------------------------------------|
d |--------------------------------------------------|
a |--------------------------------------------------|
e |-5-4-2-4-5-4-2-4-5-5-5---5-5-5---4-4-4---2-2-2----|
B |-3-2-0-2-3-2-0-2-------2-------2-------0-------0--|
    . . . . . . . .       .       .       .       .

   2:40
b |-----------------------------|
f#|-----------------------------|
d |-----------------------------|
a |-----------------------------|
e |-5------5-4------2-4------2--|
B |-3------3-2------0-2------0--|


   2:44
b |------------------------------|
f#|------------------------------|
d |------------------------------|
a |------------------------------|
e |-2-2-2-2-306-2-2-2-2-4-2-2-4--|
B |-0-0-0-0-----0-0-0-0-2-0-0-2--|
    . . . .     . . . .   . .

   2:44 (continued)
b |------------------------------|
f#|------------------------------|
d |------------------------------|
a |------------------------------|
e |-2-2-2-2-306-2-2-2-4-2-2-2-4--|
B |-0-0-0-0-----0-0-0-2-0-0-0-2--|
    . . . .     . . .   . . .


   3:04
b |--------------------------------|
f#|--------------------------------|
d |-2-2-2-2-2-2-2-2-2-2------------|
a |--------------------------------|
e |-----------------------3-4-2-3--|
B |-----------------------1-2-0-1--|
                          . . . .

   3:07
b |------------------------------------------------------------------|
f#|------------------------------------------------------------------|
d |-2-2-2-----------0-0-0-----------2-2-2----------------------------|
a |------------------------------------------------------------------|
e |-------3---2---3-------3---2---3-------3---2---3-5-4-----3-2------|
B |-------1---0---1-------1---0---1-------1---0---1-----3-2-----3-2--|
          .   .   .       .   .   .       .   .   .

   3:07 (continued)
b |----------------------------------------------------------------------|
f#|----------------------------------------------------------------------|
d |-2-2-2-----------0-0-0-----------2-2-2-----------0-0-0---0-0-0-5-5-5--|
a |----------------------------------------------------------------------|
e |-------3---2---3-------3---2---3-------3---2---3----------------------|
B |-------1---0---1-------1---0---1-------1---0---1----------------------|
          .   .   .       .   .   .       .   .   .


-END-
comments
We did not receive enough feedback on this tab! Please rate:
print report bad tab
1 2 3 4 5
I want to post or [tab]
guest
You may want to rate the tab now too:
select rating
Please do not post tabs as comments. Select "correction" instead!