Oops, an error
Loading. Please wait.

The Optimist Bass Tab

version 1
version 1

Intro

Interactive

786 views 1 this week
no commentswrite comment
1 2 3 4 5
please rate
add to favorites
launch autoscroll
font size
0
reset
guitar tuner
Autoscroll
slow
fast
+/-
esc
set tempo
stop
Help us to improve Ultimate-Guitar.com Take our survey!
×
Difficulty
Tuning
novice
C G C F A D
F|--------------------------------|
C|--------------------------------|
G|------------------------6-/-7---|
C|------------------------6-/-7---|

F|--------------------------------|
C|--------------------------------|
G|--------------------------------|
C|4-1-2---1---0---2-1-0---2---1---|\
                                    (x2)
F|--------------------------------|/
C|--------------------------------|
G|--------------------------------|
C|4-1-2---1---0---2-1-0---6---7---|

Sorry I don't have the rest; it's a tough song.
Suggest correction
Give kudos to tab author, rate the tab!
1 2 3 4 5
comments
print report bad tab
guest
You may want to rate the tab now too:
select rating
Wanna post a correction for this tab? Suggest correction