Oops, an error
Loading. Please wait.

Plough And Orion Tab

version 1
version 1

Whole song

  • Original artist's version with capo 2 (previous tab has capo 7).
73 views 3 this week
no commentswrite comment
1 2 3 4 5
3 more votes to show rating
add to favorites
launch autoscroll
font size
0
reset
how to read this tab
guitar tuner
Autoscroll
slow
fast
+/-
esc
set tempo
stop
Help us to improve Ultimate-Guitar.com Take our survey!
×
Author
Difficulty
Capo
intermediate
2nd fret
About this tab version
Original artist's version with capo 2 (previous tab has capo 7). Was this info helpful? Yes No
-----------------------------------------------------------------
Plough & Orion - Skinny Lister
-----------------------------------------------------------------
Tabbed by: Hmm..Peculiar (J. v/d Linden)
Email: j-w _at_ live.nl

Version notes: 
My other tab had the capo on 7. I since discovered that it sounds nicer
with the capo on 2. Which is how Skinny Lister plays it themselves.
This also includes the chorus.

Tuning: normal
Capo: 2

[Intro & Verse]
e|-10------------------9----------|-7-------------------5---------|
B|-------10-----------------------|-------8-----7-----------------|
G|-------------9--------------(0)-|-------------7---------------7-|
D|-0-------0-------0-------0------|-0-------0-------0-------0-----|
A|--------------------------------|-------------------------------|
E|--------------------------------|-------------------------------|

e|-5-------------------5----------|-3-------------------0---------|
B|-------7-----5--------------(0)-|-------3-----3-------------(3/)|
G|-------------6------------------|-------------2-----------------|
D|-0-------0-------0-------0------|-0-------0-------0-------0-----|
A|--------------------------------|-------------------------------|
E|--------------------------------|-------------------------------|

{The grace notes in parentheses are not always played
 you can use those to add a little variation}

[Chorus]
e|--------------------------------|-------------------------------|
B|-0-----------0------------------|-7-----------7-----------------|
G|-------0-------------0------(0)-|-------7-------------7------(0)|
D|---------0---------------0------|---------0---------------0-----|
A|--------------------------------|-------------------------------|
E|-3---------------3--------------|-7---------------7-------------|
                      Oh, to lay...
e|--------------------------------|-------------------------------|
B|-3-----------3------------------|-0-----------0-----------------|
G|-------2-------------2------(0)-|-------0-------------0------(0)| 
D|---------0---------------0------|---------0---------------0-----|
A|--------------------------------|-------------------------------|
E|-2---------------2--------------|-3---------------3-------------|


e|--------------------------------|-------------------------------|
B|-0-----------0------------------|-7-----------7-----------------|
G|-------0-------------0------(0)-|-------7-------------7------(0)|
D|---------0---------------0------|---------0---------------0-----|
A|--------------------------------|-------------------------------|
E|-3---------------3--------------|-7---------------7-------------|
          Dark falls,...
e|--------------------------------|-------------------------------|
B|-3-----------3------------------|-0-----------0-----------2-----|
G|-------2-------------2------(0)-|-------0---0-0-----------2-----|
D|---------0---------------0------|---------0---------------------|
A|--------------------------------|-------------------------0-----|
E|-2---------------2--------------|-3-----------3-----------------|

e|--------------------------------|-------------------------------|
B|-3-----------3------------------|-0-----------0-----------2-----|
G|-------2-------------2------(0)-|-------0---0-0-----------2-----|
D|---------0---------------0------|---------0---------------------|
A|--------------------------------|-------------------------0-----|
E|-2---------------2--------------|-3-----------3-----------------|

Suggest correction
Give kudos to tab author, rate the tab!
1 2 3 4 5
comments
print report bad tab
guest
You may want to rate the tab now too:
select rating
Wanna post a correction for this tab? Suggest correction