Oops, an error
Loading. Please wait.

Red Lipstick tab

1,740 views 1 this week
1 commentread comment
1 2 3 4 5
3 more votes to show rating
add to favorites
×
Save as Personal and add changes to this tab that will be seen only by you. Learn more ›
×
You can save this tab as Personal to edit and correct it or add notes. All changes will be seen only by you. Learn more »
launch autoscroll
font size
0
reset
how to read this tab
guitar tuner
edit
Autoscroll
slow
fast
+/-
esc
set tempo
stop
Author
Difficulty
----------------------------------------------------------------------------
                     RED LIPSTICK - Skint & Demoralised
----------------------------------------------------------------------------
Tabbed by: Matthew Barron
Email: azbazbadazbaz@ymail.com

Tuning: Standard (EADGBE)

Intro:

e|--------------------------------------|
B|--------------------------------------|
G|--------------------------------------|
D|-------7--------9--------6--------7---|
A|---5------5/7------7\4------4/5-------|
E|--------------------------------------|

"Oh!"

e|---------------------------------------------------|
B|---------------------------------------------------|
G|---7--7---9-9---6--6---7-7---7--7---9--6--6--7-7---|
D|---7--7---9-9---6--6---7-7---7--7---9--6--6--7-7---|
A|---5--5---7-7---4--4---5-5---5--5---7--4--4--5-5---|
E|---------------------------------------------------|

That chord pattern continues all the way through the song.

Enjoy!

Bazz

| /  slide up
| \  slide down
| h  hammer-on
| p  pull-off
| ~  vibrato
| +  harmonic
| x  Mute note
============================================================================

            
            
Suggest correction
Creating personal tab
Creating personal tab
You can edit any tab online and save it as your Personal.

You can edit, replace or remove any tab part or add personal notes – all changes will be seen only by you.

Personal tabs can be accessed anytime from any device, even offline.
Learn more »
Give kudos to tab author, rate the tab!
1 2 3 4 5
comments
print report bad tab
1 comment total.
0 reply
Jonesytab13 114 Sep 02, 2012 07:56 PM

Playing along to the version on Hypemachine at the moment (Sunday 2nd Sept 2012) it sounds like you're a semi-tone off:

So the bass riff starts on 6 of the A string

e|--------------------------------------|
B|--------------------------------------|
G|--------------------------------------|
D|-------8--------10--------7-------8---|
A|---6------6/8------8\5------5/6-------|
E|--------------------------------------|

same transposition for the chords and I think at least the middle four strings should be played, as the 3rd chord is definitely a minor

e|---------------------------------------------------|
B|---8--8---1010--4--4---8-8---8--8---10--4--4--8-8--|
G|---8--8---1010--7--7---8-8---8--8---10--7--7--8-8--|
D|---8--8---1010--7--7---8-8---8--8---10--7--7--8-8--|
A|---6--6---8-8---5--5---6-6---6--6---8---5--5--6-6--|
E|---------------------------------------------------|

guest
You may want to rate the tab now too:
select rating
Wanna post a correction for this tab? Suggest correction