Oops, an error
Loading. Please wait.

Arrisgate bass

by Skizoo
1,263 views 1 this week
no commentswrite comment
1 2 3 4 5
1 last vote to show rating
add to favorites
×
Save as Personal and add changes to this tab that will be seen only by you. Learn more ›
×
You can save this tab as Personal to edit and correct it or add notes. All changes will be seen only by you. Learn more »
launch autoscroll
font size
0
reset
guitar tuner
edit
Autoscroll
slow
fast
+/-
esc
set tempo
stop
Author
Tab por: HGF (Héctor Galán Figueroa)
Edu usa un bajo de 5 cuerdas, pero esta es la versión buena (suena bien)
para los 4cuerdas.

DropC - CGCf - Do,Sol,Do,Fa

Intro
f -------------------------------|
C -------------------------------|
G -------------------------------|
C -4-4-4-4-0-0-0-7-7-7-7-7-7-7-7-|
si os fijais, aquí está a destiempo, son 15 corcheas (7,5 negras)

Verso/Solo
 --------------------------------|
 --------------------------------|
 --------------------------------|
 4-4-4-4-0-0-0-7-7-7-7-7-7-7-7-5-|
1. Devuélveme los ojos que sin saber / Perdí mirando el firmamento
1. Quiero aprender a permanecer de pié / Y desterrar esto que siento
2. Devuélveme las alas que te presté / Para burlar de nuevo al pensamiento

Pre-Chorus
 ---------------------------------------|
 ---------------------------------------|
 ---------------------------------------|
 -0-0-0-0-0-0-0-0-0-0-0-0-0-0-2-4-2-7-6-|


1. Es difícil entender la razón / Que nos impulsa siempre a perder el control
2. Es difícil contener la emoción / Cuando se nubla todo sin solución

Chorus
 --------------------------|
 --------------------------|
 --------------------------|
 -4-4-242-0--0-0-0-0-0-0-0-|
_
 -------------------------|
 -------------------------|
 -------------------------|
 -4-4-242-7--7-7-0--0-0-0-|


Arriésgate en nombre de este amor
Volvería a atravesar las puertas del infierno
Si me esperases dentro

Puente
 --------------------------------------------------------|
 --------------------------------------------------------|
 --------------------------------------------------------|
 -8-8-10101012--0-0-0-000-0-0-8-8-10121012-0-0-0-0-0-0-0-|
_
 -----------------------------------------|
 -----------------------------------------|
 -----------------------------------------|
 -8-8-10101012--0-0-0-000-0-8~---7~----5~-|

Nubes de dolor / Asediándonos
Nubes que ahora son cómplices de éste rencor

Final
 -------------------|
 -------------------|
 -------------------|
 -4~----0~-------7~-|


ESTRUCTURA
Intro x4    Verso x8
Pre-Chorus x1    Chorus x2
Intro x2    Verso x4
Pre-Chorus x1    Chorus x2
Puente x1    Solo x4
                 Chorus x2
Puente x1
Intro x4    Final x6 (última vez-suave)


Dudas/correcciones/etc...     ESP_bender-a.C.-@hotmail.com

A ver si saco las guitarras y eso...

            
            
Suggest correction
Creating personal tab
Creating personal tab
You can edit any tab online and save it as your Personal.

You can edit, replace or remove any tab part or add personal notes – all changes will be seen only by you.

Personal tabs can be accessed anytime from any device, even offline.
Learn more »
Give kudos to tab author, rate the tab!
1 2 3 4 5
comments
print report bad tab
guest
You may want to rate the tab now too:
select rating
Wanna post a correction for this tab? Suggest correction