Oops, an error
Loading. Please wait.

Free My Land Tab

1,803 views 1 this week
no commentswrite comment
1 2 3 4 5
please rate
add to favorites
launch autoscroll
font size
0
reset
how to read this tab
guitar tuner
Autoscroll
slow
fast
+/-
esc
set tempo
stop
Help us to improve Ultimate-Guitar.com Take our survey!
×
Verse\Intro:

e|--------------------------------|
b|--------------------------------|
g|--------------------5555555555--|
d|--8888888--3333333--5555555555--|
a|--8888888--3333333--3333333333--|
e|--6666666--1111111--------------|

Chrous:
e|-------------------------------|
b|-------------------------------|
g|----------------555555---------|
d|--55555--33333--555555--88888--|
a|--55555--33333--333333--88888--|
e|--33333--11111----------66666--|
"We were the country that had everything..."


e|-----------|
b|-----------|
g|--------5--|
d|--5--3--5--|
a|--5--3--3--|
e|--3--1-----|
Once a nation now were...

The Strumming isn't perfect, but you'll get the idea. I found a couple of ways to play 
song. But, I think this one is the correct way.
Suggest correction
Give kudos to tab author, rate the tab!
1 2 3 4 5
comments
print report bad tab
guest
You may want to rate the tab now too:
select rating
Wanna post a correction for this tab? Suggest correction