Oops, an error
Loading. Please wait.

Breakn A Sweat Tab

25,382 views 33 this week
9 commentsread comments
1 2 3 4 5
accurate
x 15
add to favorites
launch autoscroll
font size
0
reset
how to read this tab
guitar tuner
Autoscroll
slow
fast
+/-
esc
set tempo
stop
Help us to improve Ultimate-Guitar.com Take our survey!
×
Author
Skrillex - Breakn' A Sweat

STANDARD TUNING
AND PLEASE DONT HATE!

Guitar Tab
e-----------------------------------------------------|
B-----------------------------------------------------|
G-------------------------------------------0---2-----|
D---------------------------------------------2---2---|
A-----------------2-0-----2---------------------------|
E-3-5-2-3-0-2-3-5-----3-2---3-5-2-3-0-2-3-5-----------|



e-----------------------------------------------------|
B-----------------------------------------------------|
G-----------------------------------------------------|
D-----------------------------------------------------|
A-----------------2-0-----2-----------------2-0-------|
E-3-5-2-3-0-2-3-5-----3-2---3-5-2-3-0-2-3-5-----------|


e-----------------------------------------------------|
B-5-5-5-3-3-5-3-0-----------0-------------------------|
G-----------------2-0---0-2---------------------------|
D---------------------2-------2--2-0-0-2--------------|
A-----------------------------------------------------|
E-----------------------------------------0-----------|


e----------------------------------------------------|
B-5-5-5-3-3-5-3-5-3-0---------0----------------------|
G---------------------0---0-2-----2-0----------------|
D-----------------------2-------2-----5-5------------|
A----------------------------------------------------|
E------------------------------------------0---------|

e----------------------------------------------------|
B-5-5-5-3-3-5-3-0-----------0------------------------|
G-----------------2-0---0-2--------------------------|
D---------------------2-------2--2-0-0-2-------------|
A----------------------------------------------------|
E-----------------------------------------0----------|

e---------------------------------------------------|
B-5-5-5-3-3-5-----0-----0-3-------0-----------------|
G-------------0-2---2-2-------0-2-------2-0---------|
D---------------------------2-------0-2-------------|
A---------------------------------------------------|
E---------------------------------------------------|


e-------------------------------------------|
B-------------------------------------------|
G-------------------------------------------|
D-------------------------------------------|
A-----------------2-0-----2-0---------------|
E-3-5-2-3-0-2-3-5-----3-2-----3-2-----------|
Suggest correction
comments
print report bad tab
9 comments total. Showing first comments.
0 reply
UnavailableUser 157 wrote on March 18 2012, 06:21 pm

cool, i've been waitin for someone to post this song! thanks

+1 reply
UnavailableUser 157 wrote on April 4 2012, 04:04 pm

Here's how I play the part after "Robby Jooooooe!"


e----------------------------------|
B----------------------------------|
G-9-9-9-7--7--9--7---7-------------|
D------------------9---7-5~--------|
A----------------------------------|
E----------------------------------|

e----------------------------------|
B----------------------------------|
G---------4~-----------------------|
D-----5-7----7-5-----5~------------|
A-5-7------------5-7-----7~--------|
E---------------------------0-0----|
^ ^ ^ ("dubsteppy" notes)

e----------------------------------|
B----------------------------------|
G-9-9-9-7--7--9--7-----------------|
D------------------7-9-7-5-5~------|
A----------------------------------|
E----------------------------------|

e----------------------------------|
B----------------------------------|
G---------4~-----------------------|
D-----5-7----7-5-----5~------------|
A-5-7------------5-7-----7~--------|
E---------------------------0-0----|
^ ^ ^ ("dubsteppy" notes)

e----------------------------------|
B----------------------------------|
G-9-9-9-7--7--9--7---7-------------|
D------------------9---7-5~--------|
A----------------------------------|
E----------------------------------|

e----------------------------------|
B----------------------------------|
G---------4~-----------------------|
D-----5-7----7-5-----5~------------|
A-5-7------------5-7-----7~--------|
E---------------------------0-0----|
^ ^ ^ ("dubsteppy" notes)

e------------------------------7---|
B----------------8-10-8---8-10-----|
G-9-9-9-7--7--9---------9----------|
D----------------------------------|
A----------------------------------|
E----------------------------------|

e----------------------------------|
B----------------------------------|
G---------4~-----------------------|
D-----5-7----7-5-------------------|
A-5-7------------------------------|
E----------------------------------|
..."That's kick-ass!"

0 reply
theused101 41 wrote on August 21 2012, 07:29 pm

noice.

robbie jammmmm

guest
You may want to rate the tab now too:
select rating
Wanna post a correction for this tab? Suggest correction