Oops, an error
Loading. Please wait.

Make It Bun Dem bass

9,270 views 3 this week
1 commentread comment
1 2 3 4 5
x 4
add to favorites
×
Save as Personal and add changes to this tab that will be seen only by you. Learn more ›
×
You can save this tab as Personal to edit and correct it or add notes. All changes will be seen only by you. Learn more »
launch autoscroll
font size
0
reset
guitar tuner
edit
Autoscroll
slow
fast
+/-
esc
set tempo
stop
-----------------------------------------------------------------
Make it Bun Dem - Skrillex and Damien Marley
-----------------------------------------------------------------

Tabbed By : OwenWxM
e-mail: mashitima69@gmail.com

I tabbed this from a bass cover on youtube: 
http://www.youtube.com/watch?v=RBDcbpMnyJE 

Tuning: Drop D

Part 1: "Turn up the bass, turn the bass (0:14 -0:40, 2:04 - 2:30)"
G|---------------------------------|
D|---------------------------------|
A|---------------------------------|
D|-4--4-4---4--4-4---4--4-4--2--6-2|
Part 2 "We a make a fire make it bun dem"
G|---------------------------------------------------------------|
D|---------------------------------------------------------------|
A|-4-4-4-4-4-5-4-2-0---------------------------------------------|
D|-------------------3-------------------------------------------|

Part 3 instrumental solo thing (0:41 - 1:06)
G|---------------------------------------------------------------|
D|---------------------------------------------------------------|
A|-9-9-9-9-9-9-9-9--9-9-9--9--7--10--9---------------------------|
D|---------------------------------------------------------------| 

G|---------------------------------------------------------------|
D|---------------------------------------------------------------|
A|-4-4-4-4-4-4-4-4--4-4-4--4--2--5--4----------------------------|
D|---------------------------------------------------------------|

Second instrumental thing (2:31 to 3:00)
G|---------------------------------------------------------------|
D|----------------------------12b--------------------------------|
A|--9-9-9--9--9-9-9--9--9-9-9----10-9-9-9--9---------------------|
D|---------------------------------------------------------------|

G|---------------------------------------------------------------|
D|---------------------------------------------------------------|
A|--------------------------------------12-----------------------|
D|-10-10-10--10--10-10-10--10--10-10-10----11-10-10-10-10--------|

Part 5 (rapping bit, 1:10 - 1:36, 3:00 to end)
G|---------------------------------------------------------------|
D|---------------------------------------------------------------|
A|---------------------------------------------------------------|
D|--3-3-3-3-3-3-3-3--3-3-3-3-/-15-15-15-15-----------------------|

I'm sorry if the timing is hard to understand, listen to the song to work it out.


            
            
Suggest correction
Creating personal tab
Creating personal tab
You can edit any tab online and save it as your Personal.

You can edit, replace or remove any tab part or add personal notes – all changes will be seen only by you.

Personal tabs can be accessed anytime from any device, even offline.
Learn more »
comments
print report bad tab
1 comment total.
0 reply
legobeanmaster 28 Apr 14, 2017 11:50 AM

This tab is good, but the way you laid it out made it a little confusing.

guest
You may want to rate the tab now too:
select rating
Wanna post a correction for this tab? Suggest correction