Oops, an error
Loading. Please wait.

Scary Monsters And Nice Sprites Bass Tab

version 1
version 1

Intro

18,426 views 9 this week
no commentswrite comment
1 2 3 4 5
x 10
add to favorites
launch autoscroll
font size
0
reset
guitar tuner
Autoscroll
slow
fast
+/-
esc
set tempo
stop
Help us to improve Ultimate-Guitar.com Take our survey!
×
Author
Difficulty
intermediate
Tabbed by AmandaCaixeta
amandaDcaixeta@hotmail.com
Standard tuning

I may finish the whole song later

G|------------------15-------19--17--15--------------------------------------|
D|------17--15--17-------17-------------15--20--19----15--13--------------15-|
A|--18-------------------------------------------------------17--15--13------|
E|---------------------------------------------------------------------------|

G|-------------------12-----------10-----------------------------------------|
D|----------------------12--8--5------8--5--3--------------------------------|
A|--13------13--17-----------------------------------------------------------|
E|------15-------------------------------------------------------------------|
Suggest correction
comments
print report bad tab
guest
You may want to rate the tab now too:
select rating
Wanna post a correction for this tab? Suggest correction