Oops, an error
Loading. Please wait.

Scary Monsters And Nice Sprites Tab

version 1
131,880 views 48 this week
5 commentsread comments
1 2 3 4 5
x 19
add to favorites
×
Save as Personal and add changes to this tab that will be seen only by you. Learn more ›
launch autoscroll
font size
0
reset
how to read this tab
guitar tuner
Autoscroll
slow
fast
+/-
esc
set tempo
stop
Author
SCARY MONSTERS AND NICE SPRITES - Skrillex
Tuning: Standard
Tempo = 140

e|---------------------------|---------------------------|
B|----------------------15---|--13-11--------------------|
G|---12-10-12-15----12-------|--------------------10-----|
D|---------------------------|-----------------------13--|
A|---------------------------|--------------13-12--------|
E|---------------------------|--------13-----------------|

e|---------------------------|--15----------13-----------|
B|---------------------------|-----15-11-------11--------|
G|-----------10--------------|-----------12-------12-10--|
D|--12-10----------------12--|---------------------------|
A|--------13----13-10-13-----|---------------------------|
E|---------------------------|---------------------------|
Suggest correction
comments
print report bad tab
5 comments total. Showing first comments.
0 reply
dudephat 10 Jun 24, 2014 11:33 AM

I'd suggest a 10 instead of an 11 in the 2nd bar.

guest
You may want to rate the tab now too:
select rating
Wanna post a correction for this tab? Suggest correction