Oops, an error
Loading. Please wait.

No False Metal tab

version 1
version 1

Whole song

Interactive

439 views 1 this week
no commentswrite comment
1 2 3 4 5
3 more votes to show rating
add to favorites
×
Save as Personal and add changes to this tab that will be seen only by you. Learn more ›
×
You can save this tab as Personal to edit and correct it or add notes. All changes will be seen only by you. Learn more »
launch autoscroll
font size
0
reset
how to read this tab
guitar tuner
edit
Autoscroll
slow
fast
+/-
esc
set tempo
stop
Author
Difficulty
Rhy. Guitar Only


[Intro]

             E  S S E  E  S S E  E  E     E  S S E  E  S S E  E  E   
e|-------|----------------------------|----------------------------|
B|-------|----------------------------|----------------------------|
G|-------|----------------------------|----------------------------|
D|-------|----------------------------|----------------------------|
A|-------|--5---------4---------5--0--|--7---------5---------5--4--|
E|-------|-----7-7-7-----7-7-7--------|-----5-5-5-----5-5-5--------|


    E  S S E  E  S S E  E  E     E  S S E  E  S S E  E  E   
e|----------------------------|----------------------------|
B|----------------------------|----------------------------|
G|----------------------------|----------------------------|
D|----------------------------|----------------------------|
A|--5---------4---------------|--5---------4---------------|
E|-----3-3-3-----3-3-3--3--3--|-----3-3-3-----3-3-3--3--3--|


    E  S S E  E  S S E  E  E     E  S S E  E  S S E  E  E   
e|----------------------------|----------------------------|
B|----------------------------|----------------------------|
G|----------------------------|----------------------------|
D|----------------------------|----------------------------|
A|--5---------4---------5--0--|--7---------5---------5--4--|
E|-----7-7-7-----7-7-7--------|-----5-5-5-----5-5-5--------|


    E  S S E  E  S S E  E  E     E  S S E  E  S S E  E  E   
e|----------------------------|----------------------------|
B|----------------------------|----------------------------|
G|----------------------------|----------------------------|
D|----------------------------|----------------------------|
A|--5---------4---------------|--5---------4---------------|
E|-----3-3-3-----3-3-3--3--3--|-----3-3-3-----3-3-3--3--3--|


     E  S S E  E  S S E  E  E     E  S S E  E  S S E  E  E   
e|-----------------------------|----------------------------|
B|-----------------------------|----------------------------|
G|*----------------------------|----------------------------|
D|*----------------------------|----------------------------|
A|---5---------4---------5--0--|--7---------5---------5--4--|
E|------7-7-7-----7-7-7--------|-----5-5-5-----5-5-5--------|


    E  S S E  E  S S E  E  E     E  S S E  E  S S E  E  E   4x
e|----------------------------|-----------------------------||
B|----------------------------|-----------------------------||
G|----------------------------|----------------------------*||
D|----------------------------|----------------------------*||
A|--5---------4---------------|--5---------4----------------||
E|-----3-3-3-----3-3-3--3--3--|-----3-3-3-----3-3-3--3--3---||


     E  S S E  E  S S E  E  S S    E  S S E  E  S S E  E  S S  
e|------------------------------|-----------------------------|
B|------------------------------|-----------------------------|
G|*-----------------------------|-----------------------------|
D|*-----------------------------|-----------------------------|
A|---2--2-2-2--0--0-0-0--2--2-2-|--5--5-5-5--4--4-4-4--2--2-2-|
E|------------------------------|-----------------------------|


    E  S S E  H        E     E  S S E  H        E     E  S S E  E  S S E  E  S S  
e|------------------------|------------------------|-----------------------------|
B|------------------------|------------------------|-----------------------------|
G|------------------------|------------------------|-----------------------------|
D|------------------------|------------------------|-----------------------------|
A|------------5-----------|------------5-----------|--2--2-2-2--0--0-0-0--2--2-2-|
E|--3--3-3-3--3-----------|--3--3-3-3--3-----------|-----------------------------|


    E  S S E  E  S S E  E  S S    E  S S E  H        E   
e|-----------------------------|------------------------|
B|-----------------------------|------------------------|
G|-----------------------------|------------------------|
D|-----------------------------|------------2-----------|
A|--5--5-5-5--4--4-4-4--2--2-2-|--0--0-0-0--0-----------|
E|-----------------------------|------------------------|


[Verse]

    E  S S E  H        E       E  E  E  E  Q    Q       E  E  E  E  E  E  E  E   
e|-------------------------||------------------------|--------------------------|
B|-------------------------||------------------------|--------------------------|
G|------------------------*||------------------------|--------------------------|
D|------------2-----------*||--------------7----9----|--4--L-----4--L-----------|
A|--0--0-0-0--0------------||--0--0--0--0--5----7----|--2--L--2--2--L--2--2--2--|
E|-------------------------||------------------------|--------------------------|


    E  E  E  E  E  E  E  E     Q    E  E  E  E  E  E     Q    E  E  Q    Q     
e|--------------------------|-------------------------|-----------------------|
B|--------------------------|-------------------------|-----------------------|
G|--------------------------|-------------------------|-----------------------|
D|--4--L-----4--L-----------|-------------------------|-------------7----6----|
A|--2--L--2--2--L--2--2--2--|--5-------------5-----7--|--L----------5----4----|
E|--------------------------|--3----3--3--3--3--3--5--|--L----5--5------------|


    E  E  E  E  E  E  E  E     E  E  E  E  E  E  E  E     Q    E  E  E  E  E  E   
e|--------------------------|--------------------------|-------------------------|
B|--------------------------|--------------------------|-------------------------|
G|--------------------------|--------------------------|-------------------------|
D|--4--L-----4--L-----------|--4--L-----4--L-----------|--2-------------------2--|
A|--2--L--2--2--L--2--2--2--|--2--L--2--2--L--2--2--2--|--0----0--0--0--0--0--0--|
E|--------------------------|--------------------------|-------------------------|


    Q    E  E  Q    Q       E  E  E  E  E  E  E  E     E  E  E  E  E  E  E  E   
e|-----------------------|--------------------------|--------------------------|
B|-----------------------|--------------------------|--------------------------|
G|-----------------------|--------------------------|--------------------------|
D|--L----------7----9----|--4--L-----4--L-----------|--4--L-----4--L-----------|
A|--L----0--0--5----7----|--2--L--2--2--L--2--2--2--|--2--L--2--2--L--2--2--2--|
E|-----------------------|--------------------------|--------------------------|


    Q    E  E  E  E  E  E     Q    E  E  Q    Q       E  E  E  E  E  E  E  E   
e|-------------------------|-----------------------|--------------------------|
B|-------------------------|-----------------------|--------------------------|
G|-------------------------|-----------------------|--------------------------|
D|-------------------------|-------------7----6----|--4--L-----4--L-----------|
A|--5-------------5-----7--|--L----------5----4----|--2--L--2--2--L--2--2--2--|
E|--3----3--3--3--3--3--5--|--L----5--5------------|--------------------------|


    E  E  E  E  E  E  E  E     Q    E  E  E  E  E  E     Q    E  E  Q    Q     
e|--------------------------|-------------------------|-----------------------|
B|--------------------------|-------------------------|-----------------------|
G|--------------------------|-------------------------|-----------------------|
D|--4--L-----4--L-----------|--2----------------------|--2----------7----6----|
A|--2--L--2--2--L--2--2--2--|--0----0--0--0--0--0--0--|--0----------5----4----|
E|--------------------------|-------------------------|-----------------------|


[Chorus]

    E  S S E  E  S S E  E  E     E  S S E  E  S S E  E  E   
e|----------------------------|----------------------------|
B|----------------------------|----------------------------|
G|----------------------------|----------------------------|
D|----------------------------|----------------------------|
A|--5---------4---------5--0--|--7---------5---------5--4--|
E|-----7-7-7-----7-7-7--------|-----5-5-5-----5-5-5--------|


    Q    E  E  E  E  E  E     Q    E  E  Q    Q       E  S S E  E  S S E  E  E   
e|-------------------------|-----------------------|----------------------------|
B|-------------------------|-----------------------|----------------------------|
G|-------------------------|-----------------------|----------------------------|
D|-------------------------|-------------7----6----|----------------------------|
A|--5-------------5-----7--|--L----------5----4----|--5---------4---------5--0--|
E|--3----3--3--3--3--3--5--|--L----5--5------------|-----7-7-7-----7-7-7--------|


    E  S S E  E  S S E  E  E     Q    E  E  E  E  E  E     Q    E  E  Q    Q     
e|----------------------------|-------------------------|-----------------------|
B|----------------------------|-------------------------|-----------------------|
G|----------------------------|-------------------------|-----------------------|
D|----------------------------|----------------------2--|--L----------7----9----|
A|--7---------5---------5--4--|--5-------------------0--|--L----0--0--5----7----|
E|-----5-5-5-----5-5-5--------|--3----3--3--3--3--3-----|-----------------------|


    E  S S E  E  S S E  E  E     E  S S E  E  S S E  E  E   
e|----------------------------|----------------------------|
B|----------------------------|----------------------------|
G|----------------------------|----------------------------|
D|----------------------------|----------------------------|
A|--5---------4---------5--0--|--7---------5---------5--4--|
E|-----7-7-7-----7-7-7--------|-----5-5-5-----5-5-5--------|


    Q    E  E  E  E  E  E     Q    E  E  Q    Q       E  S S E  E  S S E  E  E   
e|-------------------------|-----------------------|----------------------------|
B|-------------------------|-----------------------|----------------------------|
G|-------------------------|-----------------------|----------------------------|
D|-------------------------|-------------7----6----|----------------------------|
A|--5-------------5-----7--|--L----------5----4----|--5---------4---------5--0--|
E|--3----3--3--3--3--3--5--|--L----5--5------------|-----7-7-7-----7-7-7--------|


    E  S S E  E  S S E  E  E     Q    E  E  E  E  E  E     Q    E  E  Q    Q     
e|----------------------------|-------------------------|-----------------------|
B|----------------------------|-------------------------|-----------------------|
G|----------------------------|-------------------------|-----------------------|
D|----------------------------|----------------------2--|--L----------7----9----|
A|--7---------5---------5--4--|--5-------------------0--|--L----0--0--5----7----|
E|-----5-5-5-----5-5-5--------|--3----3--3--3--3--3-----|-----------------------|


     E  S S E  E  S S E  E  S S    E  S S E  E  S S E  E  S S  
e|------------------------------|-----------------------------|
B|------------------------------|-----------------------------|
G|*-----------------------------|-----------------------------|
D|*-----------------------------|-----------------------------|
A|---2--2-2-2--0--0-0-0--2--2-2-|--5--5-5-5--4--4-4-4--2--2-2-|
E|------------------------------|-----------------------------|


    E  S S E  H        E     E  S S E  H        E     E  S S E  E  S S E  E  S S  
e|------------------------|------------------------|-----------------------------|
B|------------------------|------------------------|-----------------------------|
G|------------------------|------------------------|-----------------------------|
D|------------------------|------------------------|-----------------------------|
A|------------5-----------|------------5-----------|--2--2-2-2--0--0-0-0--2--2-2-|
E|--3--3-3-3--3-----------|--3--3-3-3--3-----------|-----------------------------|


    E  S S E  E  S S E  E  S S    E  S S E  H        E   
e|-----------------------------|------------------------|
B|-----------------------------|------------------------|
G|-----------------------------|------------------------|
D|-----------------------------|------------2-----------|
A|--5--5-5-5--4--4-4-4--2--2-2-|--0--0-0-0--0-----------|
E|-----------------------------|------------------------|


[Verse]

    E  S S E  H        E       E  E  E  E  Q    Q       E  E  E  E  E  E  E  E   
e|-------------------------||------------------------|--------------------------|
B|-------------------------||------------------------|--------------------------|
G|------------------------*||------------------------|--------------------------|
D|------------2-----------*||--------------7----9----|--4--L-----4--L-----------|
A|--0--0-0-0--0------------||--0--0--0--0--5----7----|--2--L--2--2--L--2--2--2--|
E|-------------------------||------------------------|--------------------------|


    E  E  E  E  E  E  E  E     Q    E  E  E  E  E  E     Q    E  E  Q    Q     
e|--------------------------|-------------------------|-----------------------|
B|--------------------------|-------------------------|-----------------------|
G|--------------------------|-------------------------|-----------------------|
D|--4--L-----4--L-----------|-------------------------|-------------7----6----|
A|--2--L--2--2--L--2--2--2--|--5-------------5-----7--|--L----------5----4----|
E|--------------------------|--3----3--3--3--3--3--5--|--L----5--5------------|


    E  E  E  E  E  E  E  E     E  E  E  E  E  E  E  E     Q    E  E  E  E  E  E   
e|--------------------------|--------------------------|-------------------------|
B|--------------------------|--------------------------|-------------------------|
G|--------------------------|--------------------------|-------------------------|
D|--4--L-----4--L-----------|--4--L-----4--L-----------|--2-------------------2--|
A|--2--L--2--2--L--2--2--2--|--2--L--2--2--L--2--2--2--|--0----0--0--0--0--0--0--|
E|--------------------------|--------------------------|-------------------------|


    Q    E  E  Q    Q       E  E  E  E  E  E  E  E     E  E  E  E  E  E  E  E   
e|-----------------------|--------------------------|--------------------------|
B|-----------------------|--------------------------|--------------------------|
G|-----------------------|--------------------------|--------------------------|
D|--L----------7----9----|--4--L-----4--L-----------|--4--L-----4--L-----------|
A|--L----0--0--5----7----|--2--L--2--2--L--2--2--2--|--2--L--2--2--L--2--2--2--|
E|-----------------------|--------------------------|--------------------------|


    Q    E  E  E  E  E  E     Q    E  E  Q    Q       E  E  E  E  E  E  E  E   
e|-------------------------|-----------------------|--------------------------|
B|-------------------------|-----------------------|--------------------------|
G|-------------------------|-----------------------|--------------------------|
D|-------------------------|-------------7----6----|--4--L-----4--L-----------|
A|--5-------------5-----7--|--L----------5----4----|--2--L--2--2--L--2--2--2--|
E|--3----3--3--3--3--3--5--|--L----5--5------------|--------------------------|


    E  E  E  E  E  E  E  E     Q    E  E  E  E  E  E     Q    E  E  Q    Q     
e|--------------------------|-------------------------|-----------------------|
B|--------------------------|-------------------------|-----------------------|
G|--------------------------|-------------------------|-----------------------|
D|--4--L-----4--L-----------|--2----------------------|--2----------7----6----|
A|--2--L--2--2--L--2--2--2--|--0----0--0--0--0--0--0--|--0----------5----4----|
E|--------------------------|-------------------------|-----------------------|


    E  S S E  E  S S E  E  E     E  S S E  E  S S E  E  E   
e|----------------------------|----------------------------|
B|----------------------------|----------------------------|
G|----------------------------|----------------------------|
D|----------------------------|----------------------------|
A|--5---------4---------5--0--|--7---------5---------5--4--|
E|-----7-7-7-----7-7-7--------|-----5-5-5-----5-5-5--------|


    Q    E  E  E  E  E  E     Q    E  E  Q    Q       E  S S E  E  S S E  E  E   
e|-------------------------|-----------------------|----------------------------|
B|-------------------------|-----------------------|----------------------------|
G|-------------------------|-----------------------|----------------------------|
D|-------------------------|-------------7----6----|----------------------------|
A|--5-------------5-----7--|--L----------5----4----|--5---------4---------5--0--|
E|--3----3--3--3--3--3--5--|--L----5--5------------|-----7-7-7-----7-7-7--------|


    E  S S E  E  S S E  E  E     Q    E  E  E  E  E  E     Q    E  E  Q    Q     
e|----------------------------|-------------------------|-----------------------|
B|----------------------------|-------------------------|-----------------------|
G|----------------------------|-------------------------|-----------------------|
D|----------------------------|----------------------2--|--L----------7----9----|
A|--7---------5---------5--4--|--5-------------------0--|--L----0--0--5----7----|
E|-----5-5-5-----5-5-5--------|--3----3--3--3--3--3-----|-----------------------|


    E  S S E  E  S S E  E  E     E  S S E  E  S S E  E  E   
e|----------------------------|----------------------------|
B|----------------------------|----------------------------|
G|----------------------------|----------------------------|
D|----------------------------|----------------------------|
A|--5---------4---------5--0--|--7---------5---------5--4--|
E|-----7-7-7-----7-7-7--------|-----5-5-5-----5-5-5--------|


    Q    E  E  E  E  E  E     Q    E  E  Q    Q       E  S S E  E  S S E  E  E   
e|-------------------------|-----------------------|----------------------------|
B|-------------------------|-----------------------|----------------------------|
G|-------------------------|-----------------------|----------------------------|
D|-------------------------|-------------7----6----|----------------------------|
A|--5-------------5-----7--|--L----------5----4----|--5---------4---------5--0--|
E|--3----3--3--3--3--3--5--|--L----5--5------------|-----7-7-7-----7-7-7--------|


    E  S S E  E  S S E  E  E     Q    E  E  E  E  E  E     Q    E  E  Q    E  E   
e|----------------------------|-------------------------|------------------------|
B|----------------------------|-------------------------|------------------------|
G|----------------------------|-------------------------|------------------------|
D|----------------------------|----------------------2--|--L----------7----9-----|
A|--7---------5---------5--4--|--5-------------------0--|--L----0--0--5----7--2--|
E|-----5-5-5-----5-5-5--------|--3----3--3--3--3--3-----|------------------------|


[Pre-Solo]

     E  E  E  E  E  E  E  E     E  E  E  E  E  E  E  E   
e|---------------------------|--------------------------|
B|---------------------------|--------------------------|
G|*--------------------------|--------------------------|
D|*--------------2-----------|--------------2-----------|
A|---L--5--4--5-----5--4--2--|--L--5--4--5-----5--4-----|
E|---------------------------|-----------------------5--|


    E  E  E  E  E  E  E  E     E  E  E  E  E  E  E  E   
e|--------------------------|--------------------------|
B|--------------------------|--------------------------|
G|--------------------------|--------------------------|
D|--------------2-----------|--------------2-----------|
A|-----5--4--5-----5--4-----|-----5--4--5-----5--4-----|
E|--L--------------------5--|--L--------------------3--|


    E  E  E  E  E  E  E  E     E  E  E  E  E  E  E  E   
e|--------------------------|--------------------------|
B|--------------------------|--------------------------|
G|--------------------------|--------------------------|
D|--------------2-----------|--------------2-----------|
A|-----5--4--5-----5--4-----|-----5--4--5-----5--4-----|
E|--L--------------------3--|--L--------------------2--|


    E  E  E  E  E  E  E  E     E  E  E  E  E  E  E  E                      
e|--------------------------|---------------------------||--------|-------|
B|--------------------------|---------------------------||--------|-------|
G|--------------------------|--------------------------*||*-------|-------|
D|--------------2-----------|--------------2-----------*||*-------|-------|
A|-----5--4--5-----5--4-----|-----5--4--5-----5--4--2---||--------|-------|
E|--L--------------------5--|--L------------------------||--------|-------|


                                            Q    Q    Q    E   E   
e|-------|-------|-------|-------|-------|------------------------|
B|-------|-------|-------|-------|-------|------------------------|
G|-------|-------|-------|-------|-------|------------------------|
D|-------|-------|-------|-------|-------|--------------------12--|
A|-------|-------|-------|-------|-------|------------------------|
E|-------|-------|-------|-------|-------|------------------------|


     H         Q     E   E      Q     Q     Q     E   E   
e|--------------------------|----------------------------|
B|--------------------------|----------------------------|
G|--------------------------|--------------------11--14--|
D|---L--------12----11--12--|---L----------12------------|
A|--------------------------|--------12------------------|
E|--------------------------|----------------------------|


     H          E   E   E   E      H.           E  E   
e|-----------------------------|-------------------7--|
B|-----------------------------|----------------8-----|
G|---Lb--------14--16--14--16--|---L------------------|
D|-----------------------------|----------------------|
A|-----------------------------|----------------------|
E|-----------------------------|----------------------|


                                           |--3--|  |--3--|               
    S S S S  S S S S  S S S S  S S S S     E  E  E  E  E  E  Q    E   E   
e|--10-7---7-10-7---7-10-7---7-10-7---7-|--10--7-----7----------------15--|
B|-------8--------8--------8--------8---|---------8-----8-----------------|
G|--------------------------------------|------------------7--------------|
D|--------------------------------------|---------------------9-----------|
A|--------------------------------------|---------------------------------|
E|--------------------------------------|---------------------------------|


     Q     Q     Q     Q        Q     Q     Q     E   E     
e|---L----12----14----10----|--12-------------------------||
B|--------------------------|--------14----15----12-------||
G|--------------------------|------------------------11--*||
D|--------------------------|----------------------------*||
A|--------------------------|-----------------------------||
E|--------------------------|-----------------------------||


[Post-Solo]


     E  E  E  E  E  E  E  E     E  E  E  E  E  E  E  E   
e|---------------------------|--------------------------|
B|---------------------------|--------------------------|
G|---L-----------------------|--------------------------|
D|------4--2--4--5--4--2-----|-----4--2--4--5--4--2-----|
A|---L--------------------5--|--L--------------------4--|
E|---------------------------|--------------------------|


    E  E  E  E  E  E  E  E     E  E  E  E  E  E  E  E   
e|--------------------------|--------------------------|
B|--------------------------|--------------------------|
G|--------------------------|--------------------------|
D|-----4--2--4--5--4--2-----|-----4--2--4--5--4--2-----|
A|--L--------------------4--|--L--------------------2--|
E|--------------------------|--------------------------|


    E  E  E  E  E  E  E  E     E  E  E  E  E  E  E  E   
e|--------------------------|--------------------------|
B|--------------------------|--------------------------|
G|--------------------------|--------------------------|
D|-----4--2--4--5--4--2-----|-----4--2--4--5--4--2-----|
A|--L--------------------2--|--L--------------------0--|
E|--------------------------|--------------------------|


    E  E  E  E  E  E  E  E     E  E  E  E  E  E  E  E   
e|--------------------------|--------------------------|
B|--------------------------|--------------------------|
G|--------------------------|--------------------------|
D|-----4--2--4--5--4--2-----|-----4--2--4--5--4--2-----|
A|--L--------------------4--|--L--------------------5--|
E|--------------------------|--------------------------|


    E  E  E  E  E  E  E  E     E  E  E  E  E  E  E  E   
e|--------------------------|--------------------------|
B|--------------------------|--------------------------|
G|--------------------------|--------------------------|
D|-----4--2--4--5--4--2-----|-----4--2--4--5--4--2-----|
A|--L--------------------5--|--L--------------------4--|
E|--------------------------|--------------------------|


    E  E  E  E  E  E  E  E     E  E  E  E  E  E  E  E   
e|--------------------------|--------------------------|
B|--------------------------|--------------------------|
G|--------------------------|--------------------------|
D|-----4--2--4--5--4--2-----|-----4--2--4--5--4--2-----|
A|--L--------------------4--|--L--------------------2--|
E|--------------------------|--------------------------|


    E  E  E  E  E  E  E  E     E  E  E  E  E  E  E  E   
e|--------------------------|--------------------------|
B|--------------------------|--------------------------|
G|--------------------------|--------------------------|
D|-----4--2--4--5--4--2-----|-----4--2--4--5--4--2-----|
A|--L--------------------2--|--L--------------------0--|
E|--------------------------|--------------------------|


    E  E  E  E  E  E  E  E     E  E  E  E  E  E  E  E     Q    Q    Q    Q     
e|--------------------------|--------------------------|----------------------|
B|--------------------------|--------------------------|----------------------|
G|--------------------------|--------------------------|----------------------|
D|-----4--2--4--5--4--2-----|--------------2-----------|------------7----6----|
A|--L--------------------4--|--L--0--0--0--0-----------|------------5----4----|
E|--------------------------|--------------------------|----------------------|

[Outro]

    E  S S E  E  S S E  E  E     E  S S E  E  S S E  E  E   
e|----------------------------|----------------------------|
B|----------------------------|----------------------------|
G|----------------------------|----------------------------|
D|----------------------------|----------------------------|
A|--5---------4---------5--0--|--7---------5---------5--4--|
E|-----7-7-7-----7-7-7--------|-----5-5-5-----5-5-5--------|


    Q    E  E  E  E  E  E     Q    E  E  Q    Q       E  S S E  E  S S E  E  E   
e|-------------------------|-----------------------|----------------------------|
B|-------------------------|-----------------------|----------------------------|
G|-------------------------|-----------------------|----------------------------|
D|-------------------------|-------------7----6----|----------------------------|
A|--5-------------5-----7--|--L----------5----4----|--5---------4---------5--0--|
E|--3----3--3--3--3--3--5--|--L----5--5------------|-----7-7-7-----7-7-7--------|


    E  S S E  E  S S E  E  E     Q    E  E  E  E  E  E     Q    E  E  Q    Q     
e|----------------------------|-------------------------|-----------------------|
B|----------------------------|-------------------------|-----------------------|
G|----------------------------|-------------------------|-----------------------|
D|----------------------------|----------------------2--|--L----------7----9----|
A|--7---------5---------5--4--|--5-------------------0--|--L----0--0--5----7----|
E|-----5-5-5-----5-5-5--------|--3----3--3--3--3--3-----|-----------------------|


    E  S S E  E  S S E  E  E     E  S S E  E  S S E  E  E   
e|----------------------------|----------------------------|
B|----------------------------|----------------------------|
G|----------------------------|----------------------------|
D|----------------------------|----------------------------|
A|--5---------4---------5--0--|--7---------5---------5--4--|
E|-----7-7-7-----7-7-7--------|-----5-5-5-----5-5-5--------|


    Q    E  E  E  E  E  E     Q    E  E  Q    Q       E  S S E  E  S S E  E  E   
e|-------------------------|-----------------------|----------------------------|
B|-------------------------|-----------------------|----------------------------|
G|-------------------------|-----------------------|----------------------------|
D|-------------------------|-------------7----6----|----------------------------|
A|--5-------------5-----7--|--L----------5----4----|--5---------4---------5--0--|
E|--3----3--3--3--3--3--5--|--L----5--5------------|-----7-7-7-----7-7-7--------|


    E  S S E  E  S S E  E  E     Q    E  E  E  E  E  E     Q    E  E  Q    Q     
e|----------------------------|-------------------------|-----------------------|
B|----------------------------|-------------------------|-----------------------|
G|----------------------------|-------------------------|-----------------------|
D|----------------------------|----------------------2--|--L----------7----9----|
A|--7---------5---------5--4--|--5-------------------0--|--L----0--0--5----7----|
E|-----5-5-5-----5-5-5--------|--3----3--3--3--3--3-----|-----------------------|


     E  S S E  E  S S E  E  E     E  S S E  E  S S E  E  E   
e|-----------------------------|----------------------------|
B|-----------------------------|----------------------------|
G|*----------------------------|----------------------------|
D|*----------------------------|----------------------------|
A|---5---------4---------5--0--|--7---------5---------5--4--|
E|------7-7-7-----7-7-7--------|-----5-5-5-----5-5-5--------|


    E  S S E  E  S S E  E  E     E  S S E  E  S S E  E  E   4x
e|----------------------------|-----------------------------||
B|----------------------------|-----------------------------||
G|----------------------------|----------------------------*||
D|----------------------------|----------------------------*||
A|--5---------4---------------|--5---------4----------------||
E|-----3-3-3-----3-3-3--3--3--|-----3-3-3-----3-3-3--3--3---||


    E  E  E  E  E  E  E  E     Q    Q    E.  E.  E     Q    E  H        E   
e|--------------------------|-----------------------|----------------------|
B|--------------------------|-----------------------|----------------------|
G|--------------------------|-----------------------|----------------------|
D|--2--2--2--2--2--2--2--2--|--2---------7---6------|----------------------|
A|--0--0--0--0--0--0--0--0--|--0---------5---4---7--|--9----7--9-----------|
E|--------------------------|--------------------5--|--7----5--7-----------|


e|-----||
B|-----||
G|-----||
D|-----||
A|-----||
E|-----||




Duration Legend
---------------
W - whole
H - half
Q - quarter
E - 8th
S - 16th
T - 32nd
X - 64th
. - note dotted
|-n-|  - n-tuplets



************************************

| * reprise
| L let ring

************************************

            
            
Suggest correction
Creating personal tab
Creating personal tab
You can edit any tab online and save it as your Personal.

You can edit, replace or remove any tab part or add personal notes – all changes will be seen only by you.

Personal tabs can be accessed anytime from any device, even offline.
Learn more »
Give kudos to tab author, rate the tab!
1 2 3 4 5
comments
print report bad tab
guest
You may want to rate the tab now too:
select rating
Wanna post a correction for this tab? Suggest correction