Oops, an error
Loading. Please wait.

Ride The Beast tab

version 2
version 2

Whole song

Interactive

322 views 1 this week
no commentswrite comment
1 2 3 4 5
3 more votes to show rating
add to favorites
×
Save as Personal and add changes to this tab that will be seen only by you. Learn more ›
×
You can save this tab as Personal to edit and correct it or add notes. All changes will be seen only by you. Learn more »
launch autoscroll
font size
0
reset
how to read this tab
guitar tuner
edit
Autoscroll
slow
fast
+/-
esc
set tempo
stop
Author
Difficulty
-------------------------------------------------------------------------------
                             RIDE THE BEAST - Skull Fist
-------------------------------------------------------------------------------
Tabbed by: David Kuri

Tab looks a bit weird because most riffs don't start on the first beat, but you'll
get the hang of it. Have fun riding the beast!


KEY:    G minor
TUNING: D G C F A D
TEMPO:  ~107 bpm

"Together we walk alone and forever... ride the beast."
Fade in on G / A#.


RIFF (both guitars):

          PM   PM      PM PM   PM   PM           
-----|------------------------------------------|
-----|------------------------------------------|
-----|---------------------------------5p-4-----|
---7-|----7--7-7--5h-7-7--7--7-7--7-7-------5-7-|
-----|------------------------------------------|
-----|------------------------------------------|

Last part of the riff has some thirds:

Jackie:
          PM   PM      PM PM PM           
-----|-----------------------------------------|
-----|-----------------------------------------|
-----|--------------------------5-5-5-5p-4-----|
---7-|----7--7-7--5h-7-7--7--7-------------5-7-|
-----|-----------------------------------------|
-----|-----------------------------------------|

Jonny:
          PM   PM      PM PM PM           
-----|------------------------------------------|
-----|------------------------------------------|
-----|--------------------------9-9-9-9p-7p-5---|
---7-|----7--7-7--5h-7-7--7--7----------------7-|
-----|------------------------------------------|
-----|------------------------------------------|


VERSE:

Jonny goes on with the riff, Jackie plays some chords:

          PM PM PM PM PM PM PM PM PM PM PM PM PM PM        PM PM PM PM PM PM PM PM PM PM PM PM PM PM    
-----|------------------------------------------------|------------------------------------------------|
-----|------------------------------------------------|------------------------------------------------|
-----|------------------------------------------------|------------------------------------------------|
-----|------------------------------------------------|------------------------------------------------|
---7-|----7--7--7--7--7--7--7--7--7--7--7--7--7--7--5-|----5--5--5--5--5--5--5--5--5--5--5--5--5--5--3-|
---5-|----5--5--5--5--5--5--5--5--5--5--5--5--5--5--3-|----3--3--3--3--3--3--3--3--3--3--3--3--3--3--1-|

    PM PM PM PM PM PM PM PM PM PM PM PM PM PM        PM PM PM PM PM PM PM PM                 
------------------------------------------------|-------------------------------------------|
------------------------------------------------|-------------------------------------------|
------------------------------------------------|-------------------------------------------|
------------------------------------------------|-------------------------------------------|
----3--3--3--3--3--3--3--3--3--3--3--3--3--3--5-|----5--5--5--5--5--5--5--5--3-3-3-3p-2---7-|
----1--1--1--1--1--1--1--1--1--1--1--1--1--1--3-|----3--3--3--3--3--3--3--3-------------3-5-|


1st SOLO BACKING:

          PM PM PM PM PM PM PM PM PM PM PM PM PM PM          PM PM PM PM PM PM PM PM PM PM PM PM PM PM   
-----|-------------------------------------------------|------------------------------------------------|
-----|-------------------------------------------------|------------------------------------------------|
-----|-------------------------------------------------|------------------------------------------------|
-----|-------------------------------------------------|------------------------------------------------|
---7-|----7--7--7--7--7--7--7--7--7--7--7--7--7--7--10-|----10-10-10-10-10-10-10-10-10-10-10-10-10-10-5-|
---5-|----5--5--5--5--5--5--5--5--5--5--5--5--5--5---8-|-----8--8--8--8--8--8--8--8--8--8--8--8--8--8-3-|

    PM PM PM PM PM PM PM PM PM PM PM PM PM PM        PM PM PM PM PM PM    PM PM PM PM PM PM    
------------------------------------------------|---------------------------------------------|
------------------------------------------------|---------------------------------------------|
------------------------------------------------|---------------------------------------------|
------------------------------------------------|---------------------------------------------|
----5--5--5--5--5--5--5--5--5--5--5--5--5--5--3-|----3--3--3--3--3--3--5--5--5--5--5--5--5--7-|
----3--3--3--3--3--3--3--3--3--3--3--3--3--3--1-|----1--1--1--1--1--1--3--3--3--3--3--3--3--5-|


1st SOLO:
                                       T                           
------|----------------12h-17-12h-17h-20p-17p-12------------------|
------|-------------13---------------------------13---------------|
------|----------14---------------------------------14------------|
------|-------14---------------------------------------14---------|
---12-|----15---------------------------------------------12~-----|
------|---------------------------------------------------------8-|
                        PM    PM             PH            PH       PH                T                       
-------------------------------------------------|-----------------------------------------------------------|
--------------------------------------------15b~-|--------15p-13---15~----------------------------13h-15-15~-|
-------------------------------------------------|-----------------------------------------------------------|
-----------------14-17-14-17-14------------------|-----------------------10h-12-12b--15pb-12pbr--------------|
-------10-15s-17----------------17-15~-----------|-----------------------------------------------------------|
----12-------------------------------------------|-----------------------------------------------------------|

                 PM  PM  PM PM  PM  PM PM PM PM PM PM PM      PH           
      |---3---|  |---3---|  |---3---|                                      
----------------------------------------------------------------------0-0-|
-----17p-15p-13-----------------------------------------------------------|
----------------16p-14p-12-16p-14p-12------------------------14~----------|
-----------------------------------------------12-------------------------|
--------------------------------------12-14-15----15-14-12----------------|
--------------------------------------------------------------------------|

                                                PM PM  
--12-0-0-10-0-0-8-0-0-7-0-0-5-0-0-7-0-0-8-0-0-7-5h-7--|
------------------------------------------------------|
------------------------------------------------------|
------------------------------------------------------|
------------------------------------------------------|
------------------------------------------------------|

          PM                 PM                  PM                    PM      
  |--3--| |--3--|   |---3--| |---3--|   |---3--| |---3---|   |---3---|         
  S  S  S S  S  S   S  S   S S  S   S   S   S  S S   S   S   S   S   S S   S   
--8p-7p-5-0--7h-8h-10p-8h-10-0--8h-10h-12p-10p-8-0--10h-12h-13p-12h-13-0--15b-|
------------------------------------------------------------------------------|
------------------------------------------------------------------------------|
------------------------------------------------------------------------------|
------------------------------------------------------------------------------|
------------------------------------------------------------------------------|

----15-13-15-13-12-13-12-----------------------17h-20-|
-------------------------15-15b-15--13--12~-----------|
------------------------------------------------------|
------------------------------------------------------|
------------------------------------------------------|
------------------------------------------------------|

   |--3--|                 |--3--|                 |--3--|        |--3--|        |--3--|
--24p20p17----17----17h20-24p20p17----17----17h20-24p20p17----17-25p20p17----17-24p20p17----17-------20b-|
-----------20----20---------------20----20-----------------20-------------20-------------20----20-20-----|
---------------------------------------------------------------------------------------------------------|
---------------------------------------------------------------------------------------------------------|
---------------------------------------------------------------------------------------------------------|
---------------------------------------------------------------------------------------------------------|
                                               
---------17p-15-17~----------|        (Yes, there is a 25 in the measure above. Don't ask me.)
-----------------------------|
-----------------------------|
-----------------------------|
-----------------------------|
-----------------------------|


AWESOME RIFF AFTER 2nd VERSE:

Jackie:

          PM   PM   PM   PM   PM   PM                PM   PM   PM   PM                            
                                                                       |--3--| |--3--|            
-----|------------------------------------------|----------------------8p-7p-5-------------------|
-----|------------------------------------------|-------6----5----6------------8p-6p-5-----------|
-----|-------5----4----5----7----5----4h-5p-4-5-|----5----5----5----5------------------7p-5p-4---|
---7-|----7----7----7----7----7----7------------|----------------------------------------------5-|
-----|------------------------------------------|------------------------------------------------|
-----|------------------------------------------|------------------------------------------------|

    PM   PM   PM   PM   PM   PM                PM   PM                PM            
------------------------------------------|----------------------------------------|
------------------------------------------|----------------------------------------|
-------5----4----5----7----5----4h-5p-4---|-------5----4h-5p-4------5----7p-5p-4---|
----5----5----5----5----5----5----------3-|----3----3----------5--5---5----------7-|
------------------------------------------|----------------------------------------|
------------------------------------------|----------------------------------------|

Jonny plays the third above:

          PM   PM   PM   PM   PM   PM                PM   PM   PM   PM                                 
                                                                        |---3--|  |---3--|             
-----|------------------------------------------|-------5----3----5----12p-10p-8----------------------|
-----|-------5----3----5----6----5----3h-5p-3-5-|----5----5----5----5------------12p-10p-8------------|
---5-|----5----5----5----5----5----5------------|------------------------------------------10p-9p-7-4-|
-----|------------------------------------------|-----------------------------------------------------|
-----|------------------------------------------|-----------------------------------------------------|
-----|------------------------------------------|-----------------------------------------------------|

    PM   PM   PM   PM   PM   PM                PM   PM            PM   PM            
------------------------------------------|-----------------------------------------|
-------5----3----5----6----5----3h-5p-3---|-------5----3h-5p-3-------5----6p-5p-3---|
----4----4----4----4----4----4----------2-|----2----2----------4--4----4----------5-|
------------------------------------------|-----------------------------------------|
------------------------------------------|-----------------------------------------|
------------------------------------------|-----------------------------------------|


CHORUS:

Jackie:
-------------------------|-------------------------|-------------------------|------------------------|
-------------------------|-------------------------|-------------------------|------------------------|
-------------------------|-------------------------|-------------------------|-----------7br----5-----|
--7~------------7-5-7-9~-|---------------9-7-9-10~-|---------------10-9-7-5~-|---------------------5--|
-------------------------|-------------------------|-------------------------|------------------------|
-------------------------|-------------------------|-------------------------|------------------------|

Jonny:
-------------------------|-------------------------|-------------------------|------------------------|
-------------------------|-------------------------|-------------------------|------------------------|
--5~------------5-4-5-7~-|----------------7-5-7-9~-|----------------9-7-5-4~-|-----------7br----5--4--|
-------------------------|-------------------------|-------------------------|------------------------|
-------------------------|-------------------------|-------------------------|------------------------|
-------------------------|-------------------------|-------------------------|------------------------|


2nd SOLO BACKING:

Simplified verse, just the chords (G | F | D# | F) without the stuff at the end.


2nd SOLO w/ DUAL AXE ACTION:
                                   |---3---|  |---3--|  |---3---|  |---3---|         
--------|---------------------------------------------------------------------------|
---15br-|-----15p-13-15p-13-12------------------------------------------------------|
--------|----------------------14-17p-16p-14----------------------------------------|
--------|------------------------------------12h-14-15-14p-12p-10-------------------|
--------|---------------------------------------------------------14p-12p-10-12~----|
--------|---------------------------------------------------------------------------|

  PM PM PM PM PM PM PM PM PM PM PM PM PM PM PM PM PM           
--------------------------------------------------------------|
-------------------------------------------------------10~----|
-----------------------------------------------9--9--9--------|
--------------------------------------7--7--7-----------------|
-----------7--7--7--5--5--5-----------------------------------|
--5--5--5--------------------8--8--8--------------------------|

   |--3--|  |--3--|  |--3--|  |--3--|  |--3--|  |--3--|  |--3--|  |--3--|  
--------------------------------------------------------------------------|
--13-12-10-13-12-10-13-12-10-13-12-10-15-13-12-15-13-12-15-13-12-15-13-12-|
--------------------------------------------------------------------------|
--------------------------------------------------------------------------|
--------------------------------------------------------------------------|
--------------------------------------------------------------------------|

   |--3--|  |--3--|  |--3--|  |--3--|  |--3--|  |--3--|  |--3--|     !SWEEPS KICK IN HERE! 
-----------12----------------12----------------10----------------10-----|
--12-13-15----15-13-12-13-15----15-13-10-12-13----13-12-10-12-13--------|
--------------------------------------------------------------------17~-|
------------------------------------------------------------------------|
------------------------------------------------------------------------|
------------------------------------------------------------------------|

                                                                PM PM               
--------------------------------------------|-----------13p-12-------12------------|
-----------17-15h-17p-15----15--------------|------------------15-13----15p-13-----|
-------------------------17----17-16-17-16~-|----------------------------------14~-|
--------------------------------------------|--------------------------------------|
--------------------------------------------|--------------------------------------|
--------------------------------------------|--------------------------------------|
                                          
          |--3--|                               |--3--|           |--3--|  
-------------------------------------|------------------------------------|----------|
------------------15-----------------|------------------------------------|----------|
---------14-16-17-----17--16-17------|------------------------------------|----------|
---------------------------------17~-|---------17-19-17-15~------15-17-15-|----------|
-------------------------------------|------------------------------------|--19~-----|
-------------------------------------|------------------------------------|----------|


WHERE WILL YOU BE WHEN THE SWEEPS KICK IN?:

                               [Tapping]
-------|----------------12h17-19s-20s-19-17p12---------------------------|
-------|-------------13------------------------13------------------------|
-------|----------14------------------------------14---------------------|
-------|-------14------------------------------------14------------------|
---12~-|----15------------------------------------------15-12~--------10-|
-------|-----------------------------------------------------------------|

                       [Tapping]
----------------10h15-19s-20s-19-15p10--------------------------|
-------------12------------------------12-----------------------|
----------12------------------------------12--------------------|
-------12------------------------------------12-----------------|
----14------------------------------------------14-10~--------8-|
----------------------------------------------------------------|

                       [Tapping]                     PM PM PM PM PM     
----------------8h13-17s-19s-17-13p8-----------------------------------|
-------------10----------------------10--------------------------------|
----------10----------------------------10-----------------------------|
-------10----------------------------------10--------------------------|
----12----------------------------------------12-8~--8--8--8--8--8--10-|
-----------------------------------------------------------------------|

                                                   PM PM PM PM PM PM PM PM PM PM PM PM
                       [Tapping]                    |--3--|  |--3--|  |--3--|  |--3--|
----------------10-15-19s-20s-19-15-10-------------------------------------------------|
-------------12------------------------12----------------------------------------------|
----------12------------------------------12-------------------------------------------|
-------12------------------------------------12-------------------10----10-12-10-12-14-|
----14------------------------------------------14-10-12-14-12-14----14----------------|
---------------------------------------------------------------------------------------|


HIGH LEADS AFTER DUAL AXE ACTION:

Backing chords are the same as 1st solo (G | A# | F | D# F), let ring.

Both guitars:
   PM PM    PM PM    PM PM                       PM PM    PM PM    PM PM                    
--------17-------17-------17p-15----17~------|--------17-------17-------17p-15----17~------|
-----17-------17-------17--------17----------|-----17-------17-------17--------17----------|
--14-------14-------14-----------------------|--14-------14-------14-----------------------|
---------------------------------------------|---------------------------------------------|
---------------------------------------------|---------------------------------------------|
---------------------------------------------|---------------------------------------------|

And then, Jonny:
   PM PM    PM PM    PM PM                          
--------17-------17-------17p-15----17~---17-15-17-|--19b~---------17--17-------17~---\---|
-----17-------17-------17--------17----------------|----------------------20-17-----------|
--14-------14-------14-----------------------------|--------------------------------------|
---------------------------------------------------|--------------------------------------|
---------------------------------------------------|--------------------------------------|
---------------------------------------------------|--------------------------------------|

Jackie:
   PM PM    PM PM    PM PM                          
--------20-------20-------20p-19----20~---20-19-20-|--22b~---------20--20-19-17-20~---\---|
-----20-------20-------20--------20----------------|--------------------------------------|
--17-------17-------17-----------------------------|--------------------------------------|
---------------------------------------------------|--------------------------------------|
---------------------------------------------------|--------------------------------------|
---------------------------------------------------|--------------------------------------|


HARMONY THING AFTER HIGH LEADS:

Both guitars:
          PM PM             PM PM                 PM PM             PM PM           
----|---------------------------------------|---------------------------------------|
----|---------------------------------------|---------------------------------------|
----|---------------------------------------|---------------------------------------|
--7-|----7-7--7--7p-5---7--7-7--7--7p-5---7-|----7-7--7--7p-5---7--7-7--7--7p-5-----|
----|-----------------7-----------------7---|-----------------7-----------------7---|
----|---------------------------------------|---------------------------------------|


And then, Jackie:
           PM PM             PM PM                 PM PM          PM PM PM PM PM PM                  
                                                                  |--3--|  |--3--|  |--3--| |--3--|  
----|---------------------------------------|-------------------------------------------------------|
----|---------------------------------------|-------------------------------------------------------|
----|---------------------------------------|-----------------------------------------------5h-7h-9-|
--7-|----7-7--7--7p-5---7--7-7--7--7p-5---7-|----7-7--7--7p-5-----------------------5h-7h-9---------|
----|-----------------7-----------------7---|-----------------7------------5h-7h-8------------------|
----|---------------------------------------|-------------------0-5h-7h-8---------------------------|

Jonny:
             PM PM                 PM PM                     PM PM           PM PM PM PM PM PM                  
                                                                             |--3--|  |--3--|  |--3--| |--3--|  
----|-----------------------------------------------|----------------------------------------------------------|
----|-----------------------------------------------|--------------------------------------------------5h-6h-8-|
----|-----------------------------------------------|------------------------------------------4h-5h-7---------|
-10-|----10-10-10-10p-9----10--10-10-10-10p-9----10-|----10-10-10-10p-9---------------3h-5h-7------------------|
----|-------------------10--------------------10----|-------------------10-7-3h-5h-7---------------------------|
----|-----------------------------------------------|----------------------------------------------------------|


ENDING:

Jackie:
      PM PM PM               PM PM PM            PM PM PM                                          
------------------------|---------------------------------------------|--------------------------|
------------------------|-----------------------------------------10~-|------10---\--------------|
---5--5--5--5--5p-4---7-|----7--7--7--7p-5p-4-9--9--9--9--9p-7p-5-----|--------------------------|
--------------------7---|---------------------------------------------|--------------------------|
------------------------|---------------------------------------------|--------------------------|
------------------------|---------------------------------------------|--------------------------|

Jonny:
      PM PM PM                PM PM PM              PM PM PM                                           
------------------------|-------------------------------------------------|--------------------------|
------------------------|---------------------------------------------13~-|------13--L\--------------|
----9--9--9--9p-7----10-|----10-10-10-10p-9----12--12-12-12-12p-10--------|--------------------------|
------------------10----|-------------------12---------------------14-----|--------------------------|
------------------------|-------------------------------------------------|--------------------------|
------------------------|-------------------------------------------------|--------------------------|


YOU MADE IT. Quite a ride, eh?

            
            
Suggest correction
Creating personal tab
Creating personal tab
You can edit any tab online and save it as your Personal.

You can edit, replace or remove any tab part or add personal notes – all changes will be seen only by you.

Personal tabs can be accessed anytime from any device, even offline.
Learn more »
Give kudos to tab author, rate the tab!
1 2 3 4 5
comments
print report bad tab
guest
You may want to rate the tab now too:
select rating
Wanna post a correction for this tab? Suggest correction