Oops, an error
Loading. Please wait.

Brazen Bass Tab

version 1
version 1

Whole song

Interactive

4,468 views 15 this week
no commentswrite comment
1 2 3 4 5
1 last vote to show rating
add to favorites
launch autoscroll
font size
0
reset
guitar tuner
Autoscroll
slow
fast
+/-
esc
set tempo
stop
Help us to improve Ultimate-Guitar.com Take our survey!
×
Song: Brazen(Weep)
Artist: Skunk Anansie
Album: Stoosh
Tab by: Robert van der Poel
        
Any comments or corrections? 
Please send them to Nisi_Nirvana@hotmail.com.

It's not a perfect tab, but it's almost
exactly right, so I hope it's usefull.



Intro by guitar only.

First verse:
First there is only the guitar and vocals.

   Oooh, Oooh..
G [-----------|-----------]
D [-----------|-----------]
A [--5-----5--|--5-----5--]
E [-----------|-----------]

First Chorus:

First Part:

   Why don't you weep, when I hurt you..
G [------7----------|-----7----------|-----5----------------------------]
D [-----7-7---5-----|----7-7---5-----|----5-5---3-----------------------]
A [--5-7---7-5-5----|-5-7---7-5-5----|-3-5---5-3-3-----------33-5-5-----]
E [-------------567-|------------543-|------------345-33-5-5--------567-]

G [------7----------|-----7----------|-----5------------------------]
D [-----7-7---5-----|----7-7---5-----|----5-5---3-------------------]
A [--5-7---7-5-5----|-5-7---7-5-5----|-3-5---5-3-3-----------33-5-5-]
E [-------------567-|------------543-|------------345-33-5-5--------]

Second Part:

   Na Na Nana..
G [------------------------|---------------|---------------|---------------]
D [------------------------|---------------|---------------|---------------]
A [-7---5------------------|-7---5-------3-|-7---5---------|-7---5-------3-]
E [---------7-5-3---756575-|---------7-5---|---------7-5-3-|---------7-5---]

Second Verse:
First guitar and vocal only.

   Oooh, Oooh..
G [-----------|-----------|-----------|-----------]
D [---5-------|----35-----]---5-------|---5-------]
A [-----------|-43--------]-----------|-----------]
E [-----------|---5-------]-----------|-----------]

Second Chorus:

First Part:

Why don't you weep, when I hurt you..
G [------7----------|-----7----------|-----5----------------------------]
D [-----7-7---5-----|----7-7---5-----|----5-5---3-----------------------]
A [--5-7---7-5-5----|-5-7---7-5-5----|-3-5---5-3-3-----------33-5-5-----]
E [-------------567-|------------543-|------------345-33-5-5--------567-]

G [------7----------|-----7----------|-----5------------------------]
D [-----7-7---5-----|----7-7---5-----|----5-5---3-------------------]
A [--5-7---7-5-5----|-5-7---7-5-5----|-3-5---5-3-3-----------33-5-5-]
E [-------------567-|------------543-|------------345-33-5-5--------]

Second Part:
   Na Na Nana..
G [-------------------------|------------------------|
D [-------------------------|------------------------|
A [-7---5-------------------|-7---5------------------|
E [---------7-5-3---5h7-5h7-|---------7-5-3---756575-|

  |---------------------------|------------------------]
  |---------------------------|------------------------]
  |-7---5---------------------|-7---5------------------]
  |---------7-5-3---5h75h75h7-|---------7-5-3---756575-]

Bridge:

G [----------------------------------|---------------------------------]
D [------------------------------765-|---------------------------------]
A [--5-5---5-5---5-5---5-5---5-5-----|-655555555555555555---8/12\8/10\5]
E [----------------------------------|---------------------------------]


Third Chorus:

First Part:

Why don't you weep, when I hurt you..
G [------7----------|-----7----------|-----5----------------------------]
D [-----7-7---5-----|----7-7---5-----|----5-5---3-----------------------]
A [--5-7---7-5-5----|-5-7---7-5-5----|-3-5---5-3-3-----------33-5-5-----]
E [-------------567-|------------543-|------------345-33-5-5--------567-]

G [------7----------|-----7----------|-----5------------------------]
D [-----7-7---5-----|----7-7---5-----|----5-5---3-------------------]
A [--5-7---7-5-5----|-5-7---7-5-5----|-3-5---5-3-3-----------33-5-5-]
E [-------------567-|------------543-|------------345-33-5-5--------]

Second Part:
   Why don't you weep, nowoo..
G [-------------------------|------------------------|
D [-------------------------|------------------------|
A [-7---5-------33333333333-|-7---5-------3333333333-|
E [---------7-5-------------|---------7-5------------|

  |-------------------------|------------------------]
  |-------------------------|------------------------]
  |-7---5-------33333333333-|-7---5-------3333333333-]
  |---------7-5-------------|---------7-5------------]

Outro:

G [-7-------------|-7-------------|-7-------------]
D [---7---5-------|---7---5-------|---7---5-------]
A [-----7---5---3-|-----7---5---3-|-----7---5---3-]
E [-----------5---|-----------5---|-----------5---]

Well, that's the song, hope you have fun with it.
The timing could be off, but just use the cd to find the right timing.
Suggest correction
Give kudos to tab author, rate the tab!
1 2 3 4 5
comments
print report bad tab
guest
You may want to rate the tab now too:
select rating
Wanna post a correction for this tab? Suggest correction