Oops, an error
Loading. Please wait.

Fooling Yourself Tab

810 views 1 this week
no commentswrite comment
1 2 3 4 5
please rate
add to favorites
launch autoscroll
font size
0
reset
how to read this tab
guitar tuner
Autoscroll
slow
fast
+/-
esc
set tempo
stop
Help us to improve Ultimate-Guitar.com Take our survey!
×
Author
artist: Skunk Anansie    
album: Fake Chemical State (2006) 
song title: fooling yourself

very easy song to play 


Intro,

     A         F#      B          D#
E-------------------|-----------------|
B-------------------|-----------------|
G-------------------|-4-4--4-4/--8----| 
D---7-7---7-7/4-4---|-4-4--4-4/--8----|x4
A---7-7---7-7/4-4---|-2-2--2-2/6-6----|
E---5-5---5-5/2-2---|-----------------|

The same verse is played during Skunk starts to sing until

time : 35"

"I find your.."

    B      A      C       B     
E--7--7---7--7---5--5----------|
B--7--7---7--7---5--5---7--7---|
G--8--8---7--7---6--6---8--8---| 
D--9--9---9--9---7--7---9--9---|
A-----------------------9--9---|
E------------------------------|

time: 42"
 
E-------------------|-----------------|
B-------------------|-----------------|
G-------------------|-4-4--4-4/8-8----| 
D---7-7---7-7/4-4---|-4-4--4-4/8-8----|x4
A---7-7---7-7/4-4---|-2-2--2-2/6-6----|
E---5-5---5-5/2-2---|-----------------|


time: 50"

"fooling yourself..."

E-------------------|
B-------------------| 
G---------4-----6---| 
D---7-----4-----6---|
A---7-----2-----4---|
E---5---------------|

solo
E-----------------------------------------------------|
B-----------------------------------------------------|
G--6h4h6h4h6h4h----8-8-8-8-8-8-8-8---9-9-9-9-9-9-9-9--|
D-----------------------------------------------------|
A-----------------------------------------------------|
E-----------------------------------------------------|

E-----------------------------------------------------|
B-----------------------------------------------------|
G--8-8-8-8-8-8-8-8--6-6-6-6-6-6-6-6---8-8-8-8-8-8-8-8-|
D-----------------------------------------------------|
A-----------------------------------------------------|
E-----------------------------------------------------|

E-----------------------------------------|
B---------------------7-7-7-7-7-7-7-7-----|
G--9-9-9-9-9-9-9-9------------------------|
D-----------------------------------------|
A-----------------------------------------|
E-----------------------------------------|

time: 1'15

E--7--7---7--7---5--5------------|
B--7--7---7--7---5--5------------|
G--8--8---7--7---6--6---8--8-----| 
D--9--9---9--9---7--7---9--9-----|
A-----------------------9--9-----|
E-----------------------7--7-----|



     A         F#       B       D#
E-------------------|-----------------|
B-------------------|-----------------|
G-------------------|-4-4--4-4/8-8----| 
D---7-7---7-7/4-4---|-4-4--4-4/8-8----|x4
A---7-7---7-7/4-4---|-2-2--2-2/6-6----|
E---5-5---5-5/2-2---|-----------------|


E-------------|
B-------------| 
G------4--6---| 
D---7--4--6---|
A---7--2--4---|
E---5---------|

time : 1'47

very slow
E-----------|------------------------------------------|
B-----------|------------------------------------------|
G--6b7------|-6------------------4--------4---6---4----|
D-----------|-6------4-----7-----4----7---4---6---4----|
A-----------|-4------4-----7-----2----7---2---4---2----|
E-----------|--------2-----5----------5----------------|

   
       " Oh oh oh oh oh..."

     A         F#       B       D#
E-------------------|-----------------|
B-------------------|-----------------|
G-------------------|-4-4--4-4/8-8----| 
D---7-7---7-7/4-4---|-4-4--4-4/8-8----|x4
A---7-7---7-7/4-4---|-2-2--2-2/6-6----|
E---5-5---5-5/2-2---|-----------------|


please enjoy
Suggest correction
What's this?
You can suggest a correction to this tab. Community and Mods will review your correction and vote to approve or reject it.
comments
We did not receive enough feedback on this tab! Please rate:
print report bad tab
1 2 3 4 5
guest
You may want to rate the tab now too:
select rating
Please do not post tabs as comments. Select "correction" instead!