Oops, an error
Loading. Please wait.

Hedonism Bass Tab

version 1
version 1

Whole song

Interactive

11,642 views 21 this week
2 commentsread comments
1 2 3 4 5
worth learning
x 4
add to favorites
launch autoscroll
font size
0
reset
guitar tuner
Autoscroll
slow
fast
+/-
esc
set tempo
stop
Help us to improve Ultimate-Guitar.com Take our survey!
×
"Hedonism" , Skunk Anansie 
taken from album LP "Stoosh"

Here's the way I play this song : (there might be a few mistakes !!)
For the rhythm, look at the + above the tab; it represents the beat
(4/4).
Anyway, I think it's easier to listen to the song to get the right
rhythm.


Intro : only guitar


Verse 1 :

    | +       +       +       +          | +       +       +      
+       |
G--|------------------------------------|---------------------------------|
D--|------------------------------------|-----------------13--13----------|
A--|------------------------------------|-10---10-13---13---------15------|
E--|-13-----------11-13-13-----11-13-14-|---------------------------------|


| +       +       +       +          | +       +       +      
+           |
|------------------------------------|-------------------------------------|
|------------------------------------|-----------------13--13--15-13-------|
|------------------------------------|-10---10-13---13---------------15-13-|
|-13-----------11-13-13-----11-13-14-|-------------------------------------|

| +       +       +       +          | +       +       +       +     |
|------------------------------------|-------------------------------|
|------------------------------------|-----------------13--13-----15-|
|------------------------------------|-10---10-13---13---------15----|
|-13-----------11-13-13-----11-13-14-|-------------------------------|

| +       +       +       +     | +   +   +   +   |
|-------------------------------|-----------------|
|-------------------------------|-----------------|
|-------------------------15----|-----------------|
|-13-----------11-13-13------13-|-(sustain on 13)-|


Chorus 1 :

    | +       +       +       +      | +       +       +       +       |
G --|--------------------------------|---------------------------------|
D --|--------------------------------|---------------------------------|
A --|--------------------------------|---------------------------------|
E --|-11------11---10-11-11---13--6--|-------------4---6---6---4---3---|

| +       +       +       +      | +       +       +       +       |
|--------------------------------|---------------------------------|
|--------------------------------|---------------------------------|
|--------------------------------|---------------------------------|
|-1-------1----0--1--1----3---4--|-------------4-3-4---4---3---1---|

| +       +       +       +      | +       +       +       +       |
|-----------------------------3--|-----------------3-------3-------|
|-1-------1----0--1--1----3------|-------------3-------3-------3---|
|--------------------------------|---------------------------------|
|--------------------------------|---------------------------------|

| +       +       +       +      | +   +   +   +   |
|--------------------------------|-----------------|
|--------------------------------|-----------------|
|--------------------------------|-----------------|
|-1-------1----0--1--1----3---4--|-(sustain on 4)--|


Verse 2 : 

    | +       +       +       +          | +       +       +      
+       |
G--|------------------------------------|---------------------------------|
D--|------------------------------------|-----------------13--13----------|
A--|------------------------------------|-10---10-13---13---------15------|
E--|-13-----------11-13-13-----11-13-14-|---------------------------------|


| +       +       +       +          | +       +       +      
+           |
|------------------------------------|-------------------------------------|
|------------------------------------|-----------------13--13--15-13-------|
|------------------------------------|-10---10-13---13---------------15-13-|
|-13-----------11-13-13-----11-13-14-|-------------------------------------|

| +       +       +       +          | +       +       +       +     |
|------------------------------------|-------------------------------|
|------------------------------------|-----------------13--13-----15-|
|------------------------------------|-10---10-13---13---------15----|
|-13-----------11-13-13-----11-13-14-|-------------------------------|

| +       +       +       +     | +   +   +   +   |
|-------------------------------|-----------------|
|-------------------------------|-----------------|
|-------------------------15----|-----------------|
|-13-----------11-13-13------13-|-(sustain on 13)-|


Chorus 2 :

    | +       +       +       +      | +       +       +       +       |
G --|--------------------------------|---------------------------------|
D --|--------------------------------|---------------------------------|
A --|--------------------------------|---------------------------------|
E --|-11------11---10-11-11---13--6--|-------------4---6---6---4---3---|

| +       +       +       +      | +       +       +       +       |
|--------------------------------|---------------------------------|
|--------------------------------|---------------------------------|
|--------------------------------|---------------------------------|
|-1-------1----0--1--1----3---4--|-------------4-3-4---4---3---1---|

| +       +       +       +      | +       +       +         +        |
|-----------------------------3--|-------------3---10-9-8-------------|
|-1-------1----0--1--1----3------|------------------------10-9-8------|
|--------------------------------|-------------------------------10-9-|
|--------------------------------|------------------------------------|

| +       +       +       +       | +   +   +   +   |
|---------------------------------|-----------------|
|---------------------------------|-----------------|
|-8-------8----6--8--8----10--11--|-(sustain on 11)-|
|---------------------------------|-----------------|

Guitar Solo :

    | +       +         +       +         | +       +          +      
+      |
G--|-------------------------------------|--------------------------------12-|
D--|-------------------------------10-11-|-12--12-------10-11-12--12--10-----|
A--|-10--10----8-10-11-12--12----8-------|-----------12----------------------|
E--|-------------------------------------|-----------------------------------|

| +       +         +       +         | +       +          +      
+      |
|-------------------------------------|--------------------------------12-|
|-------------------------------10-11-|-12--12-------10-11-12--12--10-----|
|-----10----8-10-11-12--12----8-------|-----------12----------------------|
|-------------------------------------|-----------------------------------|

| +       +         +       +         | +       +          +      
+        |
|-------------------------------------|-------------------------------------|
|-------------------------------10-11-|-12--12-------10-11-12--12-----------|
|-----10----8-10-11-12--12----8-------|-----------12---------------12-11-10-|
|-------------------------------------|-------------------------------------|

| +       +         +       +         | +   +   +   +   |
|-------------------------------------|-----------------|
|---------------------------------10--|-(sustain on 10)-|
|-----10----8-10-11-12--12----12------|-----------------|
|-------------------------------------|-----------------|

Verse 3 :

    | +       +       +       +       | +       +       +       +      
|
G--|---------------------------------|---------------------------------|
D--|---------------------------------|---------------------------------|
A--|-----------------------------15--|-------------13--15--13--15--13--|
E--|-13------13---11-13-13---15------|---------------------------------|

| +       +       +       +       | +       +        +       +       |
|---------------------------------|----------------------------------|
|---------------------------------|----------------------------------|
|-------------------------12--13--|------------13-12-13--13--12------|
|-15------15---13-15-15-----------|------------------------------15--|

| +       +       +       +       | +       +       +       +       |
|---------------------------------|---------------------------------|
|---------------------------------|---------------------------------|
|-----------------------------15--|-------------13--15--13--15--13--|
|-13------13---11-13-13---15------|---------------------------------|

| +       +       +       +       | +       +        +       +       |
|---------------------------------|----------------------------------|
|---------------------------------|----------------------------------|
|-------------------------12--13--|------------13-12-13--13--12------|
|-15------15---13-15-15-----------|------------------------------15--|

| +       +       +       +       | +       +       +       +       |
|---------------------------------|---------------------------------|
|---------------------------------|---------------------------------|
|-----------------------------15--|-------------13--15--13--15--13--|
|-13------13---11-13-13---15------|---------------------------------|

| +       +       +       +       | +       +        +       +       |
|---------------------------------|----------------------------------|
|---------------------------------|----------------------------------|
|-------------------------12--13--|------------13-12-13--13--12------|
|-15------15---13-15-15-----------|------------------------------15--|

| +       +       +       +       | +       +       +          
+           |
|---------------------------------|-----------------12-11-10----------------|
|---------------------------------|--------------------------12-11-10-------|
|-----------------------------15--|-------------15--------------------12-11-|
|-13------13---11-13-13---15------|-----------------------------------------|

| +       +       +       +       | +   +   +   +   |
|---------------------------------|-----------------|
|---------------------------------|-----------------|
|-10------10----8-10-10---12--13--|-(sustain on 13)-|
|---------------------------------|-----------------|

Outro : guitar only.

_____
Tabbed by Emmanuel OLLAND

Any suggestions or comments : eolland@univ-valenciennes.fr
Suggest correction
What's this?
You can suggest a correction to this tab. Community and Mods will review your correction and vote to approve or reject it.
comments
print report bad tab
2 comments total.
0 reply
micklemas_raj 56 wrote on March 29 2003, 12:00 am

I'm having difficulty with this tune, but i'm pretty sure it starts:

G --------------------------------
D -----------------------1--3-3-1-
A -------------------1-1----------
E 1----0-1-1---1-3-4--------------

something still doesn't sound quite right, but i'm sure it doesn't start on the 13th fret...

0 reply
angstpristine 14 wrote on November 11 2013, 04:51 am

Song should be played with the bass in Eb, but this is pretty good for anyone who wants to have a go without retuning their bass - it still works.

guest
You may want to rate the tab now too:
select rating
Please do not post tabs as comments. Select "correction" instead!