Oops, an error
Loading. Please wait.

I Can Dream Bass Tab

5,173 views 1 this week
3 commentsread comments
1 2 3 4 5
1 last vote to show rating
add to favorites
launch autoscroll
font size
0
reset
guitar tuner
Autoscroll
slow
fast
+/-
esc
set tempo
stop
Help us to improve Ultimate-Guitar.com Take our survey!
×
" I can drean", SKUNK ANANSIE

taken from the album "Paranoid and sunburnt"

Here is the way I play this song :

The bassline is based on 4 differents patterns, the most difficult
to get is the first one ( Riff 1).

Intro :

G |---------------|
D |-11-9-11-------|
A |---------12-11-|
E |---------------|

Riff 1 :

G |-----------------------------------------------|
D |-----11------11-------11-------11--------------|
A |-9-9----9-11----11-12----11-12----12-14-12-11--|
E |-----------------------------------------------|

Bridge 1 :

G |----------------------------------|
D |----------------------------------|
A |-9-9-9-10-10-10-12-12-12-14-14-14-|
E |----------------------------------|

Riff 2 :

G |--------------------------------------------------------------------|
D |-------------------------------12-12-12-12-12-12--------------------|
A |-9-9-9-9-9-9-11-11-11-11-11-11--------------------------------------|
E |-------------------------------------------------12-12-12-12-12-12--|

Bridge 2 :

G |----------------------------------|
D |----------------------------------|
A |-9-9-9-10-10-10-11-11-11-12-12-12-|
E |----------------------------------|

Here is the structure of the song :

Intro 
Riff 1   :10 times
Bridge 1 : 2 times
Riff 2   : 2 times
Riff 1   :10 times with a little variation at the end of the 2nd and the
		   6th patterns : there is a short slapped bridge that
		   I will post later.
Bridge 1 : 2 times
Riff 2   : 4 times
Bridge 2 : 8 times
Riff 2   : 8 times

Tabbed by Emmanuel OLLAND
(This is the first Basstab I've sent to the OLGA.)

Any suggestions or comments :
eolland@univ-valenciennes.fr

Suggest correction
Give kudos to tab author, rate the tab!
1 2 3 4 5
comments
print report bad tab
3 comments total.
0 reply
Alien_from_a_cd 420 Oct 17, 2005 04:43 AM

Riff 1 can also be played an octave lower. But hey, good job!

0 reply
Zakk_Wylde001 70 Nov 12, 2005 05:15 AM

Fantastic song....good work!

0 reply
philhitchman 10 Aug 18, 2015 03:45 AM

Cass plays it an octave lower...

G||----------------------------------|
D||----------------------------------|
A||------4-----4-----4-----4-0-2-0---|
E||--2-2---2-3---3-4---4-5---------4-|

...plus the progression in riff 1 goes up in semi-tones, so if you did play it an octave up it would look like this...

G |-----------------------------------------------|
D |-----11------11-------11-------11--------------|
A |-9-9----9-10----10-11----11-12----12-14-12-11--|
E |-----------------------------------------------|

guest
You may want to rate the tab now too:
select rating
Wanna post a correction for this tab? Suggest correction