Oops, an error
Loading. Please wait.

Little Baby Swastikka Bass Tab

version 2
version 2

Whole song

1,198 views 3 this week
no commentswrite comment
1 2 3 4 5
please rate
add to favorites
launch autoscroll
font size
0
reset
guitar tuner
Autoscroll
slow
fast
+/-
esc
set tempo
stop
Help us to improve Ultimate-Guitar.com Take our survey!
×
Author
Difficulty
intermediate
Skunk Anansie
Little Baby Swastikkka
Album:Paranoid and Sunburnt
Tuning E,A,D,G

Intro
G----------------------|
D----------------------|
A-----3--2-------------|
E-----------3--2--1/---|

Verse

G-----------------------|     on every forth one play G----------------------5*|
D-----------------------|                             D------------------------|
A----------------2------|                             A----------------2-------|
E---0-0----0-0-3----3---| x19                         E---0-0----0-0-3----3----|

and as you go you play the 20th one it has this fill
G---12-14-12--12--------------------------------|
D-----------14--14-12-14-12---12----------------|
A---------------------------14--14-12-14-12-10--|
E-----------------------------------------------|

Chorus


G-----------------------|
D-----------------------|
A----------------2------|
E---0-0----0-0-3----3---| x4

G---------------------------------------------|
D---------------------------------------------|
A--3-333-333--0-000-000------------2-222-222--|
E------------------------2-222-222------------|


G-----------------------|
D-----------------------|
A----------------2------|
E---0-0----0-0-3----3---| x8

on some of these you will hear some pop and slapping i think hes just pop the open G and 
on the
2
but on the last one i think it goes sommthing like this

G----------5--------4-----|                      G----------------------|
D-------------------------| then into the intro  D----------------------|
A----0h33-----0h22----2---|                      A--3--2----------------|
E-------------------------|                      E-------3--2--1/-------|
     T  T P   T  T P  T

Verse x11 with the same fill on the 12th

Chorus

G-----------------------|
D-----------------------|
A----------------2------|
E---0-0----0-0-3----3---| x4

G---------------------------------------------|
D---------------------------------------------|
A--3-333-333--0-000-000------------2-222-222--|
E------------------------2-222-222------------|


G-----------------------|
D-----------------------|
A----------------2------|
E---0-0----0-0-3----3---| x8

on some of these you will hear some pop and slapping i think hes just pop the open G and 
on the
2
but on the last one i think it goes sommthing like this

G----------5--------4-----|                      G----------------------|
D-------------------------| then into the intro  D----------------------|
A----0h33-----0h22----2---|                      A--3--2----------------|
E-------------------------|                      E-------3--2--1/-------|
     T  T P   T  T P  T

Bass fills

G--------------12h14-12--12--------------------------------|
D-----5----------------14--14-12-14-12---12----------------|
A--------------------------------------14--14-12-14-12-10--|
E--5-------------------------------------------------------|

G--------------12h14-12--12-----------------------------15-|
D-----7----------------14--14-12-14-12---12----------------|
A--------------------------------------14--14-12-14-12-----|
E--5-------------------------------------------------------|

G--------------12h14-12--12--------------------------------|
D-----5----------------14--14-12-14-12---12----------------|
A--------------------------------------14--14-12-14-12-10--|
E--5-------------------------------------------------------|


G--------------12h14-12--12-----------------------------15-|
D-----7----------------14--14-12-14-12---12----------------|
A--------------------------------------14--14-12-14-12-----|
E--5-------------------------------------------------------|

I am not sure if this part is rite but when i play it, it sounds ok

Verse x6 on the 7th it goes E--0-------012\----

Chorus x24

End

G----------------------|
D----------------------|
A-----3--2-------------|
E-----------3--2--1/---|
Suggest correction
Give kudos to tab author, rate the tab!
1 2 3 4 5
comments
print report bad tab
guest
You may want to rate the tab now too:
select rating
Please do not post tabs as comments. Select "correction" instead!