Oops, an error
Loading. Please wait.

My Ugly Boy Tab

version 1
version 1

Whole song

Interactive

4,297 views 6 this week
no commentswrite comment
1 2 3 4 5
please rate
add to favorites
launch autoscroll
font size
0
reset
how to read this tab
guitar tuner
Tab Pro tools
  • play this tab
  • loop segment
  • change instrument
  • show fretboard
  • metronome
×
Best way to learn
"My Ugly Boy"
Autoscroll
slow
fast
+/-
esc
set tempo
stop
Difficulty
intermediate
-----------------------------------------------------------------------------
                         MY UGLY BOY - Skunk Anansie
-----------------------------------------------------------------------------
Tabbed by: Lostchild
Email: gorillaznoodle@ymail.com 
I was looking for this tab and I didn't find so I just adapted it from videos I 
saw on Youtube. This is my first tab, hope it helps.

Tuning:Standard

Intro/Verse :
    C     Am     Em
e|--0--0--x--0---0--x--0---0--0---------0--|
B|--1--1--x--1---1--x--0---0--0---------0--|
G|--0--0--x--2---2--x--0---0--0---------0--|
D|--2--2--x--2---2--x--2---2--2---2--2--2--| x2
A|--3--3--x--0---0--x--2---2--2---2--2--2--|
E|---------------------0---0--0---0--0--0--|


Chorus :
              C          Am        Em
e|----------|------------------------------------------|   
B|----------|------------------------------------------|
G|------5---|----------------------0----------------0--|
D|--5/7---7-|-10--10--x--7---7--x--2---2--2---2--2--2--| 
A|----------|-10--10--x--7---7--x--2---2--2---2--2--2--|
E|----------|-8---8---x--5---5--x--0---0--0---0--0--0--|
              repeat this part...

then:            Em
e|-----------------------------------|
B|-----------------------------------|
G|----------------------0---------0--|
D|---------------2---2--2---2--2--2--|
A|---------------2---2--2---2--2--2--|
E|--3-1-3-1--3-1-0---0--0---0--0--0--|


Bridge :
And I know what I’d like to do...
    C   G  F    G  Dm   G  F    G  C    Em
e|-----------------------------------------|
B|-----------------------------------------|
G|-----------------7---------------5-------|
D|--10--5--3----5--7----5--3----5--5----2--|
A|--10--5--3----5--5----5--3----5--3----2--|
E|--8---3--1----3-------3--1----3-------0--|
           X10     x10     x10     x10 
(listen to the song to find the rythm)

************************************

| /   slide up
| \   slide down
| h   hammer-on
| p   pull-off
| ~   vibrato
| +   harmonic
| x   Mute note
| b   Bend
| pb  Pre-bend
| br  Bend release
| pbr Pre-bend release
| brb Bend release bend

************************************
comments
We did not receive enough feedback on this tab! Please rate:
print report bad tab
1 2 3 4 5
I want to post or [tab]
guest
You may want to rate the tab now too:
select rating
Please do not post tabs as comments. Select "correction" instead!