Oops, an error
Loading. Please wait.

Picking On Me Bass Tab

372 views 1 this week
no commentswrite comment
1 2 3 4 5
3 more votes to show rating
add to favorites
launch autoscroll
font size
0
reset
guitar tuner
Autoscroll
slow
fast
+/-
esc
set tempo
stop
Help us to improve Ultimate-Guitar.com Take our survey!
×
Difficulty
novice
Possibly the easiest song you'll ever learn!!!

Verse

G|--------|--------|--------|--------|
D|--------|--------|--------|--------|
A|--------|--------|-3-3----|-5-5----|
E|-0-0----|-0-0----|--------|--------|

Chorus

G|--------|--------|--------|--------|
D|--------|--------|--------|--------|
A|-5-5----|-3-3----|--------|--------|
E|--------|--------|-0-0----|-0-0----|

Simple as that, enjoy!
Suggest correction
Give kudos to tab author, rate the tab!
1 2 3 4 5
comments
print report bad tab
guest
You may want to rate the tab now too:
select rating
Wanna post a correction for this tab? Suggest correction