Oops, an error
Loading. Please wait.

Twisted Bass Tab

9,320 views 18 this week
no commentswrite comment
1 2 3 4 5
please rate
add to favorites
launch autoscroll
font size
0
reset
guitar tuner
Autoscroll
slow
fast
+/-
esc
set tempo
stop
Help us to improve Ultimate-Guitar.com Take our survey!
×
SKUNK ANANSIE - "Twisted" - Bass Tab

Common time(4/4)
Standard Tuning(EADG)

Intro:

|---------|---------------------|-----------|-----------------|
|-.-.-.---|---------------------|-.-.-.-----|-----------------|
|-7-7-7-7-|-r-7-9-9-10-10-10-10-|-3-3-3-r-3-|---------2-2-----|
|---------|---------------------|-----------|-0-0-2-2-----0-0-|
  1 2 3 4   1 & 2 & 3  &  4  &    1 2 3 4 &   1 & 2 & 3 & 4 &

|-----------|-------------------|-----------|-------------|
|-.-.-.-----|-9-9-8-8-7-7-7-6-6-|-----------|-------------|
|-7-7-7-r-7-|-------------------|-3-3-3-r-3-|-2-2-2-1-1-2-|
|-----------|-------------------|-----------|-------------|
  1 2 3 4 &   1 & 2 & 3 & a 4 &   1 2 3 4 &   1 & 2 3 & 4

|-----------------|---------------------|-----------------|
|-----------------|---------------------|-----------------|
|-7-7-r-7-7-7-r-7-|-7-7-9-9-10-10-10-10-|-3-3-r-3-3-3-r-3-|
|-----------------|---------------------|-----------------|
  1 & 2 & 3 & 4 &   1 & 2 & 3  &  4  &    1 & 2 & 3 & 4 &

|-----------------|-----------------|-----------------|
|-----------------|-----------------|-9-9-8-8-7-7-6-6-|
|---------2-2-----|-7-7-r-7-7-7-r-7-|-----------------|
|-0-0-2-2-----0-0-|-----------------|-----------------|
  1 & 2 & 3 & 4 &   1 & 2 & 3 & 4 &   1 & 2 & 3 & 4 &

|-----------------|---------------|
|-----------------|---------------|
|-3-3-r-3-3-3-r-3-|-2-2-2-2-1-1-2-|
|-----------------|---------------|
  1 & 2 & 3 & 4 &   1 & 2 & 3 & 4

Verse/After Chorus:

|--------------------------|---------------------|
|*-------------------------|---------------------|
|*-7-7-7-7-7-7-7-7-7-7-7-7-|-7-7-9-9-10-10-10-10-|
|--------------------------|---------------------|
   1 & a 2 & a 3 & a 4 & a   1 & 2 & 3  &  4  &  

|-------------------------|-----------|-------------------------|
|-------------------------|-----------|-------------------------|
|-3-3-3-3-3-3-3-3-3-3-3-3-|-----2-----|-7-7-7-7-7-7-7-7-7-7-7-7-|
|-------------------------|-0-2---0-0-|-------------------------|
  1 & a 2 & a 3 & a 4 & a   1 2 3 4 &   1 & a 2 & a 3 & a 4 & a

|-----------------|-------------------------|------------------|
|-9-9-8-8-7-7-6-6-|-------------------------|-----------------*|
|-----------------|-3-3-3-3-3-3-3-3-3-3-3-3-|-2-2-2-2-1-1-2-2-*|
|-----------------|-------------------------|------------------|
  1 & 2 & 3 & 4 &   1 & a 2 & a 3 & a 4 & a   1 & 2 & 3 & 4 &

Chorus:

|------------------|---------------------|-----------------|
|*-----------------|---------------------|-----------------|
|*-7-7-7-7-7-7-7-7-|-7-7-9-9-10-10-10-10-|-3-3-3-3-3-3-3-3-|
|------------------|---------------------|-----------------|
   1 & 2 & 3 & 4 &   1 & 2 & 3  &  4  &    1 & 2 & 3 & 4 &

|-----------------|-----------------|-----------------|
|-----------------|-----------------|-----------------|
|-3-3-2-2-1-1-2-2-|-0-0-0-0-0-0-0-0-|-0-0-0-0-r-0-1-2-|
|-----------------|-----------------|-----------------|
  1 & 2 & 3 & 4 &   1 & 2 & 3 & 4 &   1 & 2 & 3 & 4 &

|-----------------|------------------|
|-----------------|---------1-------*| (this is approximate
|-r-0-1-2-r-0-1-2-|-r-0-1-2---2-1-2-*|  timing, go by feel!)
|-----------------|------------------| 
  1 & 2 & 3 & 4 &   1 & 2 & 3 & 4 &

Pre-Solo:

|-------------------------|-------------------------|
|-------------------------|-------------------------|
|-7-7-7-7-7-7-7-7-7-7-7-7-|-7-7-7-7-7-7-7-7-7-7-7-7-|
|-------------------------|-------------------------|
  1 & a 2 & a 3 & a 4 & a   1 & a 2 & a 3 & a 4 & a

|-------------------------|-------------------------|
|-------------------------|-------------------------|
|-3-3-3-3-3-3-3-3-3-3-3-3-|-3-3-3-3-3-3-3-3-3-3-3-3-|
|-------------------------|-------------------------|
  1 & a 2 & a 3 & a 4 & a   1 & a 2 & a 3 & a 4 & a

|-------------------------|-----------------|
|-------------------------|-9-9-8-8-7-7-6-6-|
|-7-7-7-7-7-7-7-7-7-7-7-7-|-----------------|
|-------------------------|-----------------|
  1 & a 2 & a 3 & a 4 & a   1 & 2 & 3 & 4 &

|-------------------------|-------------------|
|-------------------------|-------------------|
|-3-3-3-3-3-3-3-3-3-3-3-3-|-2-2-2-2-2-2-1-1-2-|
|-------------------------|-------------------| 
  1 & a 2 & a 3 & a 4 & a   1 & a 2 & a 3 & 4

Solo:

|---------------|-----------------|---------------|-----------------|
|---2------2----|-----------------|---------------|-----------------|
|-2----2-2------|-2-2-1-1-0-0-----|-2-3--2-2-3--2-|-----------------|
|-------------0-|-------------3-0-|---------------|-3-3-3-3-5-5-3-0-|
  1               1 & 2 & 3 & 4 &   1               1 & 2 & 3 & 4 & 

|---------------|-----------------|---------------|---------|
|---2------2----|-----------------|---------------|---------|
|-2----2-2------|-2-2-1-1-0-0-----|-2-3--2-2-3--2-|-.-.-.-.-|
|-------------0-|-------------3-0-|---------------|-3-3-2-1-|
  1               1 & 2 & 3 & 4 &   1               1 2 3 4

After Solo:

|-------------------------|-------------------------------|
|-------------------------|-------------------------------|
|-7-7-7-7-7-7-7-7-7-7-7-7-|-7-7-7-9-9-9-10-10-10-10-10-10-|
|-------------------------|-------------------------------|
  1 & a 2 & a 3 & a 4 & a   1 & a 2 & a 3  &  a  4  &  a

|-------------------------|-----------------|
|-------------------------|-----------------|
|-3-3-3-3-3-3-3-3-3-3-3-3-|---------2-2-----|
|-------------------------|-0-0-2-2-----0-0-|
  1 & a 2 & a 3 & a 4 & a   1 & 2 & 3 & 4 &

|-------------------------|-------------|---------|---------|
|-------------------------|  _3_   _3_  |---------|---------|
|-7-7-7-7-7-7-7-7-7-7-7-7-|-| | |-| | |-|---------|-----14/-|
|-------------------------|-7-7-5-7-5-3-|-7-------|---------|
  1 & a 2 & a 3 & a 4 & a   1  2  3  4    1 2 3 4   1 2 3 4
				    (triplet over
					2 beats)

By: Johari Taylor
E-mail: viking@powerup.com.au

Suggest correction
What's this?
You can suggest a correction to this tab. Community and Mods will review your correction and vote to approve or reject it.
comments
We did not receive enough feedback on this tab! Please rate:
print report bad tab
1 2 3 4 5
guest
You may want to rate the tab now too:
select rating
Please do not post tabs as comments. Select "correction" instead!