Oops, an error
Loading. Please wait.

We Love Your Apathy Bass Tab

version 1
version 1

Whole song

Interactive

522 views 3 this week
1 commentread comment
1 2 3 4 5
worth learning
x 2
add to favorites
launch autoscroll
font size
0
reset
guitar tuner
Tab Pro tools
  • play this tab
  • loop segment
  • change instrument
  • show fretboard
  • metronome
Autoscroll
slow
fast
+/-
esc
set tempo
stop
Contributor
We Love Your Apathy
Skunk Anansie
Tabbed by PitchImperfect

\ = slide down
/ = slide up
~ = vibrato
r = let ring

I hope this tab's ok.  It was a really hard song to tab but I think
I got pretty much all of it.  Cass uses a 5 string but only at one point in the song so
I only put it in for that bit, just to save me having to put a blank line on every other bit.
I'll correct bits that aren't quite right as soon as I can figure them out properly.


INTRO
G|-----------------------------------------|
D|-----------------------------------------|
A|-----3-3-00-0-55-7-----3-3-00------------|
E|-0-0---------------0-0--------33-22-11-0-|

VERSE
G|----------------------------------------|
D|------------------------------------5---|
A|-----3-3-00-0-55-7-----3-3-00-0-5-3---3-|
E|-0-0---------------0-0------------------|

G|-----------------------------------------|
D|-----------------------------------------|
A|-----3-3-00-0-55-7-----3-3-00------------|
E|-0-0---------------0-0--------33-22-11-0-|

G|---------------------------------------|
D|------------------------------------5~-|
A|-----3-3-00-0-55-7-----3-3-00-0-5-7----|
E|-0-0---------------0-0-----------------|

G|-----------------------------------------|
D|-----------------------------------------|
A|-----3-3-00-0-55-7-----3-3-00------------|
E|-0-0---------------0-0--------33-22-11-0-|

CHORUS
G|-----------------------------------------|
D|-----------------------------------------|
A|-5-5-55-54-4-44-43-3-33---3-33-----------|
E|------------------------0------3-5-3-2-1-|

G|-----------------------------------------|
D|-----------------------------------------|
A|-5-5-55-54-4-44-43-3-33------------------|
E|------------------------0-3r-----3-3-3-3-|

G|-----------------------------------------|
D|-----------------------------------------|
A|-----------------------------------------|
E|-3-3-3-3-3-3-3-3-3-3-3-3-3-3-3-3-3-3-3-3-|
   Listen to the song for exact number of times

G|-----------------------------------------|
D|-----------------------------------------|
A|-----3-3-00-0-55-7-----3-3-00------------|
E|-0-0---------------0-0--------33-22-11-0-|

2ND VERSE
G|----------------------------------------|
D|------------------------------------5---|
A|-----3-3-00-0-55-7-----3-3-00-0-5-3---3-|
E|-0-0---------------0-0------------------|

G|-----------------------------------------|
D|-----------------------------------------|
A|-----3-3-00-0-55-7-----3-3-00------------|
E|-0-0---------------0-0--------33-22-11-0-|

G|----------------------------------------|
D|------------------------------------5~--|
A|-----3-3-00-0-55-7-----3-3-00-0-5-7-----|
E|-0-0---------------0-0----------------0-|

G|--------------------------------------------|
D|--------------------------------------------|
A|-----3-3-00-0-55-7-----3-3-00-0-0-0-0-0-0-0-|
E|-0-0---------------0-0----------------------|

CHORUS
G|-------------------------------------------|
D|-------------------------------------------|
A|-5-5-55-54-4-44-43-3-33---3-33-3-----------|
E|------------------------0--------3-5-3-2-1-|

G|-----------------------------------------------|
D|-----------------------------------------------|
A|-5-5-55-54-4-44-43-3-33------------------------|
E|------------------------0-3r-----3-3-3-3-3-3-3-|

G|-----------------------------------------------|
D|-----------------------------------------------|
A|-----------5-5--------------------5-5----------|
E|-3-3-33-3-3----0-1-11-2-3-3-33-3-3----0-1-11-2-|

G|-------------------------------------------------------------|
D|-------------------------------------------------------------|
A|-3-3-3-3-3-3-3-3-3-3-3-3-3-3-3-3-2-2-2-2-2-2-2-1-1-1-1-0-0-0-|
E|-------------------------------------------------------------|
                                   This bit's not quite right, it's
                   more complicated but I can't figure it out right 
                   now.  As soon as I do I'll change it.
INTERLUDE
G|-------------------------------------------------------------|
D|-------------------------------------------------------------|
A|--------------1--1-1-1-----------------1-1-1-0r--------------|
E|-2-2-2-2-0-0-0---------0-2-4-0-0-0-0-0---------------0-2-4r--|

G|-------------------------------------------------------------|
D|-------------------------------------------------------------|
A|--------------1--1-1-1-----------------1-1-1-0r--------------|
E|-2-2-2-2-0-0-0---------0-2-4-0-0-0-0-0---------------0-2-4r--|

G|--------------------------------------------------------------|
D|--------------------------------------------------------------|
A|--------------1--1-1-1-----------------1-1-1-4----4-------4-4-|
E|-2-2-2-2-0-0-0---------0-2-4-0-0-0-0-0----------4---4---4-----|
B|------------------------------------------------------2-------|

CHORUS
G|-----------------------------------------------|
D|-----------------------------------------------|
A|-5-5-05-5554-4-04-4443-3-33---3-33-3-----------|
E|----------------------------0--------3-5-3-2-1-|

G|---------------------------------------------------|
D|---------------------------------------------------|
A|-5-5-05-5554-4-04-4443-3-33---3-33---3-33--------3-|
E|----------------------------0------0------0-3-35---|

G|------------------------------------------|
D|------------------------------------------|
A|-5-5-05-5554-4-04-4443-3-33-------3-------|
E|----------------------------0-8-8/--3-5-0-|

G|-----------------------------------------------|
D|-----------------------------------------------|
A|-5-5-05-5554-4-04-4443-3-33---3-33-3-----------|
E|----------------------------0--------3-5-3-2-1-|

G|----------------------------------------|
D|----------------------------------------|
A|-5555555544444444333333-------------3-5-|
E|-----------------------03-33-3333-5-----|

G|-------------------------------------|
D|-------------------------------------|
A|-5555555544444444333333--------------|
E|-----------------------03-33-333-2-1-|

G|-------------------------------------------|
D|-------------------------------------------|
A|-5555555544444444333333---3-33-3-----------|
E|------------------------0--------3-5-3-2-1-|

G|----------------------------------------|
D|----------------------------------------|
A|-5555555544444444333333-------------3-5-|
E|-----------------------03-33-3333-5-----|
comments
We did not receive enough feedback on this tab! Please rate:
print report bad tab
1 2 3 4 5
1 comment total.
0 reply
PitchImperfect wrote on January 11 2005, 12:00 am

Again, who is it that keeps giving me 1 star? My tabs, I know, arent perfect but I spend a lot of time on them and I know they're better than 1 star.

I want to post or [tab]
guest
You may want to rate the tab now too:
select rating
Please do not post tabs as comments. Select "correction" instead!