Oops, an error
Loading. Please wait.

Weak Bass Tab

version 1
version 1

Whole song

Interactive

11,719 views 15 this week
no commentswrite comment
1 2 3 4 5
please rate
add to favorites
launch autoscroll
font size
0
reset
guitar tuner
Autoscroll
slow
fast
+/-
esc
set tempo
stop
Help us to improve Ultimate-Guitar.com Take our survey!
×
WEAK (BASS TAB)
TAb BY :AGAPE JEHOSAPHAT B. ESPLAGO


intro play this once

G  ---------------------5---------------------------------------------|
D  -------------------------------------------------------------------|
A  7---7---5---5---3----------3---2---3---5---7---7---5---5---3-------|
E  -------------------------------------------------------------------|
<<<-------------------------------------------------------------------|>>


Verse 1
-------

G  -------------------------------------|
D  -------------------------------------|
A  7---7---5---5---3----3---2---3---5---|
E  -------------------------------------|

G  -------------------------------------|
D  -------------------------------------|
A  7---7---5---5---3----3---2---3---5---|
E  -------------------------------------|

G  -------------------------------------|
D  -------------------------------------|
A  7---7---5---5---3----3---2---3---5---|
E  -------------------------------------|

G  ------------------------------------------------|
D  -----------------------------5------------------|
A  7---7---5---5---3---3----3-------3--------------|
E  -------------------------------------0---2---3--|

Verse 2
-------

Repeat verse 1 except last part which goes like:

G  -------------------------5------|
D  --------------------------------|
A  7---7---5---5---3----3-------3--|
E  --------------------------------|

CHORUS
------

G  ---------------------5--------------------|
D  ------------------------------------------|
A  7---7---5---5---3----------3---2---3---5--|
E  ------------------------------------------|


this X 4 (similar to intro)
More expression than verse


Verse 3
-------

Same as verse 2


CHORUS
------

Same as first CHORUS


bridge
------

G  ----------------------------------|
D  ----------------------------------|
A  ----------------------------------|
E  3---3---3---3---5---5---5---5-----|


G --------------------7------------------|
D ---------------------------------------|
A 3---3---3---3---5-------5---3---2------|
E ------------------------------------5--|


X 3


then

G  ----------------------------------|
D  ----------------------------------|
A  ----------------------------------|
E  3---3---3---3---5---5---5---5-----|


G -------------------------------------------------|
D -------------------------------------------------|
A 3---3---3---3---5-5-5-5-5-5-5-5-5-5-5-5-5-5-5-5--|
E -------------------------------------------------|


Chorus X 2 (dfferent words)


OUTRO
-----

G  -----------------------------------------------------------|
D  7---7---5---5---12---12---10--------7---7---7---7---7---5--|
A  -------------------------------5---------------------------|
E  -----------------------------------------------------------|

X 3

G -------------------|
D -------------------|
A 7---7---5---5---3--|
E -------------------|

ANY COMMENTS EMAIL ME AT AGAPE_JEHOSAPHAT@yahoo.com

THANKSS

SKUNK ANASIE RULZZZZZZZZZZZZZ
Suggest correction
Give kudos to tab author, rate the tab!
1 2 3 4 5
comments
print report bad tab
guest
You may want to rate the tab now too:
select rating
Please do not post tabs as comments. Select "correction" instead!