Oops, an error
Loading. Please wait.

Weak Bass Tab

version 2
version 2

Whole song

Interactive

815 views 1 this week
no commentswrite comment
1 2 3 4 5
3 more votes to show rating
add to favorites
launch autoscroll
font size
0
reset
guitar tuner
Autoscroll
slow
fast
+/-
esc
set tempo
stop
Help us to improve Ultimate-Guitar.com Take our survey!
×
Difficulty
intermediate
Skunk Anansie - Weak

Sorry this isn't full tab but will be

Sick of very wrong tab. It's not perfect but it won't get you laughed at on youtube or at gigs!!
This is as close as i can get it as basses position in the mix leaves some notes a little buried.
Rest of tab and any tweaks coming very soon....

Intro
G|--------------------------------------------------|
D|--9----7-5--5-5----------9----7--5----------------|
A|--7-3/55-3--3-3--3223----7-3/55--3----------------|
E|0---------------0----3-0--------------------------|

Verse Basic gist to get you going.

G|---------------------|
D|---------------------|
A|-----5-5-3---3-3223--|
E|0-0-x--------------3-|

Verse fill
G|----------------|
D|----5-----------|
A|3-----3---------|
E|----------03/555|

Chorus basic gist
G|-----------------------|
D|--9----7-5--5-5--------|
A|--7-3/55-3--3-3--3223--|
E|0---------------0----3-|
Suggest correction
Give kudos to tab author, rate the tab!
1 2 3 4 5
comments
print report bad tab
guest
You may want to rate the tab now too:
select rating
Wanna post a correction for this tab? Suggest correction