Oops, an error
Loading. Please wait.

Weak Bass Tab

version 3
version 3

Whole song

Interactive

3,164 views 9 this week
no commentswrite comment
1 2 3 4 5
x 4
add to favorites
launch autoscroll
font size
0
reset
guitar tuner
Autoscroll
slow
fast
+/-
esc
set tempo
stop
Help us to improve Ultimate-Guitar.com Take our survey!
×
Author
Difficulty
intermediate
Skunk Anansie - Weak

Sick of very wrong tab. It's not perfect but it won't get you laughed at on youtube or at gigs!!
This is as close as i can get it as basses position in the mix leaves some notes a little buried. 
A better stereo and a proper slow downer rather than an android app would help!

Listen carefully. Some of the licks require some smart playing to nail properly.

Enjoy!

Intro
G|-----------------------------------------------------|
D|----9----7-5--5-5-----------9----7--5----------------|
A|----7-3/55-3--3-3--3-223----7-3/55--3----------------|
E|0-----------------0-----3-0--------------------------|

Verse

G|-------------------------|
D|-------------------------|
A|-----5-5-3--3-3--3-3223--|
E|0-0-x------------------3-|

G|--------------------------|
D|--------------------------|
A|------5-5-3--3-3--3-32235-|
E|0-0-00--------------------|

G|-------------------------|
D|-------------------------|
A|-----5-5-3--3-3--3-3223--|
E|0-0-x------------------3-|

G|-------------------------|
D|-------------5-----------|
A|-----5-5-3-----3---------|
E|0-0-x--------------03/555|

G|-------------------------|
D|-------------------------|
A|-----5-5-3--3-3--3-3223--|
E|0-0-x------------------3-|

G|-------------------------|
D|-------------------------|
A|-----5-5-3--3-3--3-32235-|
E|0-0-x--------------------|

G|--------------------------|
D|--------------------------|
A|-----5-5-3--3-3--3-32h33--|
E|0-0-x-------------------3-|

G|-------------------------|
D|-------------5-----------|
A|-----5-5-3-----3---------|
E|0-0-x--------------0/12\0|

Chorus

G|--------------------------|
D|----9----7-5--5-5---------|
A|----7-3/55-3--3-3--3-223--|
E|0-----------------0-----3-|

G|--------------------------|
D|----9----7-5--5-5-------5-|
A|----7-3/55-3--3-3--3-2233-|
E|0-----------------0-------|

G|--------------------------|
D|----9----7-5--5-5---------|
A|----7-3/55-3--3-3--3-223--|
E|0-----------------0-----3-|


G|-------------------------|
D|----9----7-5---------/12\|
A|----7-3/55-3-------------|
E|0------------------------|

Verse

G|-------------------------|
D|-------------------------|
A|-----5-5-3--3-3--3-3223--|
E|0-0-x------------------3-|

G|-------------------------|
D|-------------------------|
A|-----5-5-3--3-3--3-32235-|
E|0-0-x--------------------|

G|-------------------------|
D|-------------------------|
A|-----5-5-3--3-3--3-3223--|
E|0-0-x------------------3-|

G|-------------------------|
D|-------------5-----------|
A|-----5-5-3-----3---------|
E|0-0-x--------------0/12\0|

chorus

G|--------------------------|
D|----9----7-5--5-5---------|
A|----7-3/55-3--3-3--3-223--|
E|0-----------------0-----3-|

G|--------------------------|
D|----9----7-5--5-5---------|
A|----7-3/55-3--3-3--3-2235-|
E|0-----------------0-------|

G|--------------------------|
D|----9----7-5--5-5---------|
A|----7-3/55-3--3-3--3-223--|
E|0-----------------0-----3-|

G|-------------------------|
D|----9----7-5--5-5--------|
A|----7-3/55-3--3-3--------|
E|0------------------------|

Middle

G|-------------------------|
D|-------------------------|
A|-------------------------|
E|3-3-x3-3-4-5-5-5-35-55x7-|

G|-------------------------------|
D|-----------------------7-------|
A|---------------5--5-5---5-x532-|
E|8--8-8-x8-88x8----------------5|

G|-------------------------|
D|-------------------------|
A|-------------------------|
E|3-3-x3-3-4-5-5-5-35-55x7-|

G|-------------------------------|
D|-----------------------7-------|
A|----------7-8-5--5-5----5-x532-|
E|8--8-8-x8x--------------------5|

G|--------------------------|
D|--------------75----------|
A|-----------------7-5-3----|
E|3-3-x3-3-4-5----------5-7-|

G|-----------------------7------------|
D|----------------------------1212etc-| 
A|----------7-8-5--5-5--5-5-----------|Back to 5 maybe?
E|8--8-8-x8x--------------------------|Could be Tom fill.

chorus

G|--------------------------|
D|----9----7-5--5-5---------|
A|----7-3/55-3--3-3--3-223--|
E|0-----------------0-----3-|

G|--------------------------|
D|----9----7-5--5-5---------|
A|----7-3/55-3--3-3--3-2235-|
E|0-----------------0-------|

G|--------------------------|
D|----9----7-5--5-5---------|
A|----7-3/55-3--3-3--3-223--|
E|0-----------------0-----3-|

G|---------------------------------|
D|----9----7-5--5-5----------------|
A|----7-3/55-3--3-3-5--------------|
E|0-------------------0/12\0-3h5p3-|

Outro

G|----------------------------|
D|----9----7-5--5-5-----------|
A|----7-3/55-3--3-3-----------|
E|0-----------------3-3-x3h555|

G|--------------------------|
D|----9----7-5--5-5-------7-|
A|----7-3/55-3--3-3--3-2235-|
E|0-0--------------0--------|

G|--------------------------|
D|----9----7-5--5-5---------|
A|----7-3/55-3--3-3--3-223--|
E|0-----------------0-----3-|

G|----------------------------|
D|----9----7-5--5-5-----------|
A|----7-3/55-3--3-3-----------|
E|0------------------3/5555555|

G|---------------------------------|
D|----9----7----5-5----------------|
A|----7-3/55-3--3-3---10h1212121210|
E|0--------------------------------|

G|------------------------------------------|
D|----9----7----12-10-----------------------|
A|----7-3/55-3------- 101010h1212121210-----|
E|0------------------------------------12p10|

G|------------------------------------------|
D|----9----7----12-12-10--------------------|
A|----7-3/55-3---------------1212121210-----|
E|0------------------------------------12p10|

G|-------------|
D|----9----7-5-|
A|----7-3/55-3-|
E|0------------|
Suggest correction
comments
print report bad tab
guest
You may want to rate the tab now too:
select rating
Wanna post a correction for this tab? Suggest correction