Oops, an error
Loading. Please wait.

You Saved Me bass

version 1
version 1

Whole song

Interactive

289 views 6 this week
no commentswrite comment
1 2 3 4 5
3 more votes to show rating
add to favorites
×
Save as Personal and add changes to this tab that will be seen only by you. Learn more ›
×
You can save this tab as Personal to edit and correct it or add notes. All changes will be seen only by you. Learn more »
launch autoscroll
font size
0
reset
guitar tuner
edit
Autoscroll
slow
fast
+/-
esc
set tempo
stop
Author
Difficulty
-------------------------------------------------------------------------------
                             You Saved Me - Skunk Anansie
-------------------------------------------------------------------------------
Tabbed by: ultimate-guit21

Tuning: Standard (although I get the impression the song is recorded with E
        string tuned to D; transpose if you like :-) )

  ...guitar only...
G|----------------|----------------|----------------|----------------|
D|----------------|----------------|----------------|----------------|
A|----------------|----------------|----------------|----------------|
E|----------------|----------------|----------------|----------------|

  I've been looking...
                   With somebody else's...
                                    Any you broke me...
G|----------------|----------------|----------------|----------------|
D|----------------|----------------|----------------|----------------|
A|----------------|----------------|----------------|0-----------0---|
E|----------------|----------------|0-------------03|-----------0-32-|

  You fixed my...  Blood-stained... I've been...
G|----------------|----------------|----------------|0-0-0-0000002-4-|
D|----------------|----------------|00000-0-000-2-4-|----------------|
A|----------------|0---------------|----------------|----------------|
E|0-------------03|----------------|----------------|----------------|

  At somebody...   world...         You let me...    Fall...
G|----------------|----------------|----------------|----------------|
D|000-0-0-0-0-----|----------------|----------------|----------------|
A|------------2-0-|----------------|----------------|0-0-0-0-0-0-0---|
E|----------------|3-3-3-33333-2---|0-0-0-0-0-0-0-03|-------------32-|

  Right through... Open door...     Saved me...  you Saved me...
G|----------------|----------------|----------------|
D|----------------|----------------|----------------|
A|----------------|0-0-0-0-0-0-0-0-|----------------|
E|0-0-0-0-0-0-0-03|---------------2|3-3---320-0----0|

  From myself      Saved me...from  Myself...
G|----------------|----------------|----------------|
D|0-0-------------|----------------|0-0-0-0-0-0-0-0-|
A|--------4-4-----|----------------|----------------|
E|---------------0|3-3---320-0-----|----------------|

  I've been running...              Sinking deeper...
G|----------------|000-0-0-0-0-2-4-|----------------|----------------|
D|0-0-0-0-000-2-4-|----------------|00000-0-0-0-----|----------------|
A|----------------|----------------|------------2-0-|----------------|
E|----------------|----------------|----------------|3-333-333-332---|

  You let me...                     Right onto solid...
G|----------------|----------------|----------------|----------------|
D|----------------|----------------|----------------|----------------|
A|----------------|0-0-0-0-0-0-0---|----------------|0-0-0-0-0-0-0-0-|
E|0-0-0-0-0-0-0-03|-------------32-|0-0-0-0-0-0-0-03|---------------2|

  Saved me...      From      ...self
G|----------------|----------------|
D|----------------|0-0-------------|
A|----------------|--------4-4---4-|
E|3-3---320-0-----|---------------0|

  Saved me...      Myself...everyone Loves me...    No-one else...
G|----------------|----------------|----------------|----------------|
D|----------------|0-0-0-0-0-0-0-0-|----------------|0-0-------------|
A|----------------|----------------|----------------|--------4-4---4-|
E|3-3---320-0-----|---------------2|3-3---320-0---00|---------------0|

  Saved me...      Myself... I have hope in my heart   ...That you'd
G|----------------|----------------|----------------|----------------|
D|----------------|0-0-0-0-0-0-0-0-|----------------|----------------|
A|----------------|----------------|----------------|-------------0--|
E|3-3---320-0-----|----------------|0-----------02--|3------3333-3---|

  Run for me...    Cause I've done it all...         Feel in my heart
G|----------------|----------------|----------------|----------------|
D|----------------|----------------|----------------|----------------|
A|-------------0--|2-------2-----2-|0---0--0--0-0---|----------------|
E|3------3333-3---|----------------|--0---0--0-0-20-|0------------02-|

  Come for me...   You leave me...  Hope                  ...you came
G|----------------|----------------|----------------|----------------|
D|----------------|----------------|----------------|----------------|
A|--------------0-|2-------2-------|3-------2-------|0---------------|
E|3-------3-03-3--|----------------|----------------|----------------|

  ...and saved me  From myself      saved me saved me From myself
G|----------------|----------------|----------------|----------------|
D|----------------|0---------------|----------------|0---------------|
A|----------------|--------4-------|----------------|----------------|
E|3-------0-------|----------------|3-------0-------|----------------|

  Loves me loves me No-one else     Saved me you...  myself
G|----------------|----------------|----------------|----------------|
D|----------------|0-0-------------|----------------|0-0-0-0-0-0-0-0-|
A|----------------|--------4-4-----|----------------|----------------|
E|3-3--0320-0-----|--------------02|3-3---320-0-----|---------------2|

  Saved me         from myself      Saved me         myself...everyone
G|----------------|----------------|----------------|----------------|
D|----------------|0-0-------------|----------------|0-0-2-0-2-0-----|
A|----------------|--------4-4-----|----------------|------------2-0-|
E|3-3---320-0-----|---------------0|3-3---320-0-----|----------------|

  Loves me         no-one  else     Saved me    from myself
G|----------------|----------------|----------------|----------------|
D|----------------|0-0-------------|----------------|0---------------|
A|----------------|--------4-4-----|----------------|----------------|
E|3-3---320-0-----|----------------|3-------0-------|----------------|

| /  slide up
| \  slide down
| h  hammer-on
| p  pull-off
| ~  vibrato
| +  harmonic
| x  Mute note
===============================================================================

            
            
Suggest correction
Creating personal tab
Creating personal tab
You can edit any tab online and save it as your Personal.

You can edit, replace or remove any tab part or add personal notes – all changes will be seen only by you.

Personal tabs can be accessed anytime from any device, even offline.
Learn more »
Give kudos to tab author, rate the tab!
1 2 3 4 5
comments
print report bad tab
guest
You may want to rate the tab now too:
select rating
Wanna post a correction for this tab? Suggest correction