Oops, an error
Loading. Please wait.

El Cuarto Oscuro Tab

65 views 1 this week
no commentswrite comment
1 2 3 4 5
3 more votes to show rating
add to favorites
×
Save as Personal and add changes to this tab that will be seen only by you. Learn more ›
×
You can save this tab as Personal to edit and correct it or add notes. All changes will be seen only by you. Learn more »
save as personal
new!
launch autoscroll
font size
0
reset
how to read this tab
guitar tuner
Autoscroll
slow
fast
+/-
esc
set tempo
stop
Me parece raro q aun nadie haya mandado el tab de este 
temazo a ATAME, asi k esperemos que la gente se anime y 
mande más tabs de Skunk DF (va por ti Chino!)

-Afinacion normal-, las notas entre parentesis son 
harmonicos forzados, las que tienen debajo un punto,
son 'secas'(tocar y apagar),y con comas, es PM

Riff 1:
e:------------------------º
b:------------------------º
g:------------------------º
d:------------------------ºx8
a:2------(3)-2--2-3-3-3-3-º
e:0--0-1-----0--0-1-1-1-1-º
  .          .    ,,,,,,,               

Verso:
e:-------------------------------------------º
b:-------5-----------------------------------º
g:2--2-3--2--2-3-3-3-3-2--2-3-5-2--2-3-3-3-3-º
d:-------------------------------------------ºx2
a:-------------------------------------------º
e:-------------------------------------------º
Quiero a papá...

e:---------------------º
b:---------------------º
g:---------------------º
d:---------------------ºx4
a:2--2-3--2--2-3-3-3-3-º
e:0--0-1--0--0-1-1-1-1-º
              ,,,,,,,,
ahora pinto el sol!.....

e:------------------------------------------º
b:------------------------------------------º
g:------------------------------------------º
d:------------------------------------------ºx2
a:2--2-3/5-2-2-2-2-2-2-2--2-3/5-22222-22222-º
e:0--0-1/3-0-0-0-0-0-0-0--0-1/3-00000-00000-º
  .        . . . . . . .        ,,,,. ,,,,.
Ven!       Vente conmigo a dormir!.....

Estribillo:

e:-----------------------------------------------------º
b:-----------------------------------------------------º
g:-----------------------------------------------------º
d:----4---4-4-5-55\5-----------------------------------ºx2
a:7---2---2-2/3-33\5---3-3-3-3-3-3-3-3-2-2-2-2-5-5-5-5-º
e:5---------------\3---1-1-1-1-1-1-1-1-0-0-0-0-3-3-3-3-º
                       ,,,,,,,,,,,,,,,,,,,,,,,,,,,,,,,  
 No   entra la luz....

riff 2:
e:-----------------------------º
b:-----------------------------º
g:-----------------------------º
d:-----------------------------º
a:-----------------------------º
e:0-0-0-0-1-1-3-3-0-0-0-0-1-1--º
,,,,,,,,,,,,,,,,,,,,,,,,,,,,,,
Riff 3:
Es igual que el riff 2 pero con quintas

Estrucutura de la canción:
Riff 1
Verso
Estribillo
Riff 1 (solo 4 veces)
Verso
Estribillo
Parte de bajo (gracias papaito...)
Riff 2 (me has creado un trauma irreversible...)
Riff 3 (papaito no me diste lo que yo te di...)
Estribillo hasta el fianl acabando en A5.

Nada más, saludos A JULY; A ANUSKA, 
a todos los colgados de CEmar,
Y A LOS QUE PATINAN EN EL HALF DE OURENSE!!!
                          PABLO (MURCIÉLAGO)
Suggest correction
Give kudos to tab author, rate the tab!
1 2 3 4 5
comments
print report bad tab
guest
Wanna post a correction for this tab? Suggest correction