Oops, an error
Loading. Please wait.

Giants In The Ocean Bass Tab

version 1
version 1

Whole song

Interactive

4,687 views 1 this week
5 commentsread comments
1 2 3 4 5
2 more votes to show rating
add to favorites
launch autoscroll
font size
0
reset
guitar tuner
Autoscroll
slow
fast
+/-
esc
set tempo
stop
Help us to improve Ultimate-Guitar.com Take our survey!
×
Author
Difficulty
intermediate
00:00
|-------------------------|
|-------------------------|
|-------------------------| x2
|2-2-5-2--2-2-5-2-2-0-0-1-|

00:13
|-------------| |--------------------------------|
|-------------| |--------------------------------|
|-------------| |1-1-1-1-1-1-1-1-1-1-1-1-1-1-1-1-|
|-00000-00000-| |--------------------------------|


|-----------------------------------------------------------------|
|-----------------------------------------------------------------|
|-0-0-0-0-0-0-0-0-0-0-0-0-0-0-0-0-3-3-3-3-3-3-3-3-3-3-3-3-3-3-3-3-|
|-----------------------------------------------------------------|


|---------------------------------| |-------------|
|---------------------------------| |-------------|
|-6-6-6-6-6-6-6-6-6-6-6-6-6-6-6-6-| |-------------|
|---------------------------------| |-00000-00000-|

00:34
|------------------------------------|
|------------------------------------|
|-55555555-22222222-3333333-11111111-|
|------------------------------------|


|----------------------| x4
|----------------------|
|-5-8-7-5-3--0-8-7-3s5-|
|----------------------|


 00:52
|----------------------------|
|----------------------------|
|----------------------------|
|-0--00-000-000000-00-0-00-0-|


|----------------------------------------------------------------|
|----------------------------------------------------------------|
|----------------------------------------------------------------|
|-00-00-0---00-00----00-00-00-00-0-00-00-00-00-00-00-00-00-00-00-|


[break 1:17 - 2:19]


|-------------------| x2
|-------------------|
|-------------------|
|-0-00-00---0-00-00-|
  * ** **   * ** **


http://skyeatsairplane.com/
Suggest correction
Give kudos to tab author, rate the tab!
1 2 3 4 5
comments
print report bad tab
5 comments total. Showing first comments.
0 reply
gofusiesbass09 118 Sep 08, 2007 08:02 PM

what tuning is this in?

0 reply
blinkrocks 127 Oct 30, 2007 12:18 AM

drop d bro..

0 reply
F.F.T.L 10 Oct 31, 2007 03:52 PM

actually, i think the tuning is drop C

guest
You may want to rate the tab now too:
select rating
Wanna post a correction for this tab? Suggest correction