Oops, an error
Loading. Please wait.

Giants In The Ocean Tab

version 1
version 1

Whole song

Interactive

4,368 views 1 this week
2 commentsread comments
1 2 3 4 5
accurate
x 3
add to favorites
launch autoscroll
font size
0
reset
how to read this tab
guitar tuner
Tab Pro tools
  • play this tab
  • loop segment
  • change instrument
  • show fretboard
  • metronome
×
Best way to learn
"Giants In The Ocean"
Autoscroll
slow
fast
+/-
esc
set tempo
stop
Difficulty
Tuning
intermediate
D G C F A D
*=Palm muts

Key board or bass is doin the beging

then after they do the intro guitar chugs in

---------------------------------------|
---------------------------------------|
---------------------------------------|
---------------------------------------|
---------------------------------------|
-00000-0-00000-0-----------------------|
 ***** * ***** *

then at the verse or intro still

--------------------------------------|
--------------------------------------|
--------------------------------------|
---5----3----5----1-------------------|
---516x-316x-516x-1(16x)--------------|
---5----3----3----1-------------------|

Then the chug cums again

--------------------------------------|
--------------------------------------|
--------------------------------------|
--------------------------------------|
--------------------------------------|
---00000-00000------------------------|
   ***** *****
Then the piano and the Singer do that weird twilight zone thing

Here cums the Break down

--------------------------------------|
--------------------------------------|
--------------------------------------|
---0-2-3-5----------------------------| 2x
---0-2-3-5let ring -53----------------|
---0-2-3-5---------0--53--------------|
   * * *           *
 then transitioning to the 2nd breakdown

--------------------------------------|
--------------------------------------|
--------------------------------------|
---1--1-1-1--1-1-1--1-1-1--3----------| Let ring on all the pauses
---1--1-1-1--1-1-1--1-1-1--3----------|
---1--1-1-1--1-1-1--1-1-1--3----------|

The Shout part
                          Shout (We wont somethin somethin)
--------------------------------------|
--------------------------------------|
--------------------------------------|
---00-00-00------------00-00--00-00---|
---00-00-00-piano part-00-00--00-00---|
---00-00-00------------00-00--00-00---|
   ** ** **            ** **  ** **

then the rest is piano

This is my first tab its a local band so its kinda alright for all you Hardore Texans. HMC!!!
comments
We did not receive enough feedback on this tab! Please rate:
print report bad tab
1 2 3 4 5
2 comments total.
0 reply
ZeroBassist wrote on June 21 2008, 09:16 pm

Sounds good to me, btw I'm not from Texas and I know about them from myspace.

0 reply
ZeroBassist wrote on June 21 2008, 09:17 pm

I forgot to say thats a Distorted bass in the begining.

I want to post or [tab]
guest
You may want to rate the tab now too:
select rating
Please do not post tabs as comments. Select "correction" instead!