Oops, an error
Loading. Please wait.

Giants In The Ocean Tab

version 2
version 2

Whole song

Interactive

964 views 1 this week
2 commentsread comments
1 2 3 4 5
please rate
add to favorites
launch autoscroll
font size
0
reset
how to read this tab
guitar tuner
Autoscroll
slow
fast
+/-
esc
set tempo
stop
Help us to improve Ultimate-Guitar.com Take our survey!
×
Author
      e |------------------------------------------------------------------|
      B |------------------------------------------------------------------|
      G |------------------------------------------------------------------|
      D |-2-2-5-2----2-2-5-2-2-0-0-1----2-2-5-2---22-2-5-2-2-0-0-1---------|
      A |-2-2-5-2----2-2-5-2-2-0-0-1----2-2-5-2---22-2-5-2-2-0-0-1---------|
      D |-2-2-5-2----2-2-5-2-2-0-0-1----2-2-5-2---22-2-5-2-2-0-0-1---------|
          * * * *    * * * * * * * *    * * * *   ** * * * * * * *

      e |------------------------------------------------------------------|
      B |------------------------------------------------------------------|
      G |------------------------------------------------------------------|
      D |------------------------------------------------------------------|
      A |-000000--000000---------------------------------------------------|
      D |-000000--000000---------------------------------------------------|
          ******  ******
      e |-----------------------------------------|    |-------------------|
      B |-----------------------------------------|    |-------------------|
      G |-----------------------------=-----------|    |-------------------|
      D |--10-10-10-10-10-10-10-10-8-8-8-8-7-7-7-7|X 2 |10-10-10-10-10-10--| X2
      A |--10-10-10-10-10-10-10-10-8-8-8-8-7-7-7-7|    |10-10-10-10-10-10--|
      D |--10-10-10-10-10-10-10-10-8-8-8-8-7-7-7-7|    |10-10-10-10-10-10--|

      e |------------------------------------------------------------------|
      B |-----------------------------------------2h3p2h3p2h3p2h3p2h3p2----|
      G |-----------------------------------------2h3p2h3p2h3p2h3p2h3p2----|
      D |------------------------------------------------------------------|
      A |-000000--000000-------some synth stuff----------------------------|
      D |-000000--000000-------some synth stuff----------------------------|
          ******  ******
      e |-----------------------|      |-------------|
      B |-----------------------|      |-------------|
      G |-----------------------|      |8h10p7h8p7h8~|
      D |--0-2-3-5~--5-3--------| X 4  |8h-----------|
      A |--0-2-3-5~------5-3----|      |-------------|
      D |--0-2-3-5~-0--------4--|      |-------------|
           * * *    *

      e |----------------------------|
      B |----------------------------|
      G |----------------------------|
      D |-1~-1-1-1~-1-1-1~-1-1-1~-3~-|
      A |-1~-1-1-1~-1-1-1~-1-1-1~-3~-|
      D |-1~-1-1-1~-1-1-1~-1-1-1~-3~-|
             * *    * *    * *

      e |----------------------------------------------------------------|
      B |----------------------------------------------------------------|
      G |----------------7h8-----------------------------7h8-------------|
      D |-----------8-10----------------------------8-10-----------------|
      A |-00-00-00----------00-00-00-00---00-00-00-----------00-00-00-00-|
      D |-00-00-00----------00-00-00-00---00-00-00-----------00-00-00-00-|
          ** ** *           ** ** ** **   ** ** **           ** ** ** **
      e|------------------------------|
      B|------------------------------|
      G|------------------------------|
      D|--------------10*-------------|
      A|--00-00-00-00-----00-00-00-00-|
      D|--00-00-00-00-----00-00-00-00-|
          ** ** ** **     ** ** ** **


      e |------------------------------------------------------------------|
      B |8-7-5~--8-7-10~--8-7-5~--8-7-10~--8-7-5~--8-7-10~--8-7-5~--8-7-10~|
      G |------------------------------------------------------------------|
      D |------------------------------------------------------------------|
      A |------------------------------------------------------------------|
      D |------------------------------------------------------------------|

      e|-------|
      B|-------|
      G|-------|
      D|-------|
      A|--0000-|
      D|--0000-|
          ****


      e |--------------------------------------------------------------------|
      B |-8-7-5~--8-7-10~--8-7-5~--8-7-10~--8-7-5~--8-7-10~--8-7-5~--8-7-10~-|
      G |--------------------------------------------------------------------|
      D |--------------------------------------------------------------------|
      A |--------------------------------------------------------------------|
      D |--------------------------------------------------------------------|


coool :O
Suggest correction
What's this?
You can suggest a correction to this tab. Community and Mods will review your correction and vote to approve or reject it.
comments
We did not receive enough feedback on this tab! Please rate:
print report bad tab
1 2 3 4 5
2 comments total.
0 reply
sparky5th 113 wrote on October 11 2008, 10:57 pm

I'm going to hunt you down and kill your family.
Learn to swim.
I'll whip you silly and **** you stupid.

0 reply
dylann 306 wrote on January 23 2011, 10:39 pm

why do u hate me

guest
You may want to rate the tab now too:
select rating
Please do not post tabs as comments. Select "correction" instead!