Oops, an error
Loading. Please wait.

She Is Just A Glitch Bass Tab

version 1
version 1

Whole song

Interactive

269 views 1 this week
no commentswrite comment
1 2 3 4 5
please rate
add to favorites
launch autoscroll
font size
0
reset
guitar tuner
Autoscroll
slow
fast
+/-
esc
set tempo
stop
Help us to improve Ultimate-Guitar.com Take our survey!
×
Author
Difficulty
intermediate
The actual version has no bass but it sounds good with it. This is as close as i could get.

Intro
G|--------------------------------------------------------|x8
D|--------------------------------------------------------|
A|-1-1-3-3-0-0-1-1-0--0-----------------------------------|
E|--------------------------------------------------------|

G|--------------------------------------------------------|x2
D|--------------------------------------------------------|
A|--------------------------------------------------------|
E|-0--0--0--0--0-0----------------------------------------|

Verse
G|--------------------------------------------------------|x4
D|--------------------------------------------------------|
A|--4-2----------4-2--24-24-------------------------------|
E|-2-5----------2-5--2--2--2~~----------------------------|

Pre-chorus
G|--------------------------------------------------------|x2
D|--------------------------------------------------------|
A|-----------------5-5-5-5-0-0-2-2------------------------|
E|-2-2-2-2-2-2-2-2----------------------------------------|

G|--------------------------------------------------------|
D|--------------------------------------------------------|
A|-------------55-55-------------------55-55--000-22------|
E|-22-22-------------------22-22--------------------------|

Chorus
G|--------------------------------------------------------------------|x2
D|--------------------------------------------------------------------|
A|-0-0-0-0-0-0-0-0-2-2-2-2-2-2-2-2-----------------5-5-5-5-7-7-7-7----|
E|---------------------------------2-2-2-2-2-2-2-2--------------------|

Solo
G|--------------------------------------------------------|x2
D|--------------------------------------------------------|
A|--------------------------------------------------------|
E|-2-22-2-22-2-22-2-22-2-22-2-22-5-55-4-44----------------|

After chorus
G|--------------------------------------------------------|x2
D|--------------------------------------------------------|
A|-----4--------------------------------------------------|
E|-2-------5----------------------------------------------|

Pre-Outro
G|--------------------------------------------------------|x2
D|--------------------------------------------------------|
A|-5-5-5-5-2-2-2-2----------------------------------------|
E|-----------------2-2-2-2-5-5-5-5------------------------|

Outro
G|--------------------------------------------------------|
D|--------------------------------------------------------|
A|-5-5-5-5-7-7-7-7----------------------------------------|
E|-----------------2-2-2-2-5-5-5-5----repeat-until-end----|


not sure about the tuning so play around with it, see if it gets any better
Suggest correction
Give kudos to tab author, rate the tab!
1 2 3 4 5
comments
print report bad tab
guest
You may want to rate the tab now too:
select rating
Wanna post a correction for this tab? Suggest correction