Oops, an error
Loading. Please wait.

She Is Just A Glitch Tab

version 1
version 1

Intro

Whole song

Interactive

3,244 views 1 this week
3 commentsread comments
1 2 3 4 5
2 more votes to show rating
add to favorites
launch autoscroll
font size
0
reset
how to read this tab
guitar tuner
Autoscroll
slow
fast
+/-
esc
set tempo
stop
Help us to improve Ultimate-Guitar.com Take our survey!
×
Difficulty
Tuning
intermediate
D A D G B E
E--5----7----4----5---4-------|  X4
B---0----0----0----0---0--5---|
G----6----6----6----6---6-----|
D-----------------------------|
A-----------------------------|
D-----------------------------|

                                 X2
E--0---0---0---0---0---|
B---0---0---0---0---0--|
G----6---6---6---6---6-|
D----------------------|
A----------------------|
D----------------------|




I'm still figuring out the rest


TM mikey|moshpit
Suggest correction
Give kudos to tab author, rate the tab!
1 2 3 4 5
comments
print report bad tab
3 comments total.
0 reply
dub_711 10 Feb 28, 2008 01:07 AM

please get more soon!!!

0 reply
DrappedInBlack 10 Aug 12, 2008 09:07 PM

argggg i need the full song XD

0 reply
DrappedInBlack 10 Aug 12, 2008 09:16 PM

the first part is played 7 times i counted lol

guest
You may want to rate the tab now too:
select rating
Wanna post a correction for this tab? Suggest correction