Oops, an error
Loading. Please wait.

It Goes Off Tab

version 2
version 2

Whole song

199 views 1 this week
no commentswrite comment
1 2 3 4 5
please rate
add to favorites
launch autoscroll
font size
0
reset
how to read this tab
guitar tuner
Autoscroll
slow
fast
+/-
esc
set tempo
stop
Help us to improve Ultimate-Guitar.com Take our survey!
×
Author
Difficulty
novice
-------------------------------------------------------------------------------
                             It Goes Off - Skybombers
-------------------------------------------------------------------------------
Tabbed by: TheTroy
Tuning: Standard

This is a very easy song. Figured out in just a few minutes. Sounds right.

Intro 00:00 - 00:38
e|---------------------------------------------------------------------------|
B|-10-10-10-10-10-10-10-10-10-10-10-10-10-10-10--13-13-13-13-13-13-13-13-13--|
G|-9--9--9--9--9--9--9--9--9--9--9--9--9--9--9---12-12-12-12-12-12-12-12-12--|
D|-11-11-11-11-11-11-11-11-11-11-11-11-11-11-11--14-14-14-14-14-14-14-14-14--|
A|-12-12-12-12-12-12-12-12-12-12-12-12-12-12-12--15-15-15-15-15-15-15-15-15--|
E|---------------------------------------------------------------------------|

e|---------------------------------------------------------------------------|
B|-13-13-13-13-13-13-13--15-15-15-15-15-15-15-15-15-15-15-15-15-15-15-15-----|
G|-12-12-12-12-12-12-12--14-14-14-14-14-14-14-14-14-14-14-14-14-14-14-14-----|
D|-14-14-14-14-14-14-14--16-16-16-16-16-16-16-16-16-16-16-16-16-16-16-16-----|
A|-15-15-15-15-15-15-15--17-17-17-17-17-17-17-17-17-17-17-17-17-17-17-17-----|
E|---------------------------------------------------------------------------|

e|---------------------------------------------------------------------------|
B|-10-10-10-10-10-10-10-10-10-10-10-10-10-10-10-10---------------------------|
G|-9--9--9--9--9--9--9--9--9--9--9--9--9--9--9--9----------------------------|
D|-11-11-11-11-11-11-11-11-11-11-11-11-11-11-11-11---------------------------|
A|-12-12-12-12-12-12-12-12-12-12-12-12-12-12-12-12---------------------------|
E|---------------------------------------------------------------------------|

Verse 00:38 - 1:03        X16 each chord 
   A         C         D         A
e|-5---------3---------5---------5-------------------------------------------|
B|-5---------5---------7---------5-------------------------------------------|
G|-6---------5---------7---------6-------------------------------------------|
D|-7---------5---------7---------7-------------------------------------------|
A|-7---------3---------5---------7-------------------------------------------|
E|-5-----------------------------5-------------------------------------------|

Chorus pt. 1    1:03 - 1:20
Guitar 1
e|---------------------------------------------------------------------------|
B|---------------------------------------------------------------------------|
G|---------------------------------------------------------------------------|
D|-7-7-7-7-7---------------5-5-5-5-5-5-5-5-5-5-5-5-5-5-5-5-------------------|
A|-7-7-7-7-7---------------5-5-5-5-5-5-5-5-5-5-5-5-5-5-5-5-------------------|
E|-5-5-5-5-5---------------3-3-3-3-3-3-3-3-3-3-3-3-3-3-3-3-------------------|
Guitar 2
e|---------------------------------------------------------------------------|
B|---------------------------------------------------------------------------|
G|----------5-7b8r7-7-5-7-5---------5-7-5-7b8r7-5---5------------------------|
D|----------5-7b8r7-7-5-7-5---------5-7-5-7b8r7-5-7---7----------------------|
A|---------------------------------------------------------------------------|
E|---------------------------------------------------------------------------|

Guitar 1
e|---------------------------------------------------------------------------|
B|---------------------------------------------------------------------------|
G|---------------------------------------------------------------------------|
D|-7-7-7-7-7---------------5-5-5-5-5-5-5-5-5-5-5-5-5-5-5-5-------------------|
A|-7-7-7-7-7---------------5-5-5-5-5-5-5-5-5-5-5-5-5-5-5-5-------------------|
E|-5-5-5-5-5---------------3-3-3-3-3-3-3-3-3-3-3-3-3-3-3-3-------------------|
Guitar 2
e|---------------------------------------------------------------------------|
B|---------------------------------------------------------------------------|
G|----------5-7b8r7-7-5-7-5---------5-7-5-7b8r7-5---5------------------------|
D|----------5-7b8r7-7-5-7-5---------5-7-5-7b8r7-5-7---7----------------------|
A|---------------------------------------------------------------------------|
E|---------------------------------------------------------------------------|

e|---------------------------------------------------------------------------|
B|---------------------------------------------------------------------------|
G|---------------------------------------------------------------------------|
D|-3-3-3-3-3-3-3-3-3-3-3-3-3-3-3-3-5-5-5-5-5-5-5-5-5-------------------------|
A|-3-3-3-3-3-3-3-3-3-3-3-3-3-3-3-3-5-5-5-5-5-5-5-5-5-------------------------|
E|-1-1-1-1-1-1-1-1-1-1-1-1-1-1-1-1-3-3-3-3-3-3-3-3-3-------------------------|

Chorus pt 2  1:20 - 1:32
Guitar 1
e|---------------------------------------------------------------------------|
B|---------------------------------------------------------------------------|
G|--------------5-5-5-5-5-5-5-5----------------------------------------------|
D|-7-7-7-7-7-7-x5-5-5-5-5-5-5-5-3-3-3-3-3-3-x5-5-5-5-5-5-5-5-----------------|
A|-7-7-7-7-7-7-x3-3-3-3-3-3-3-3-3-3-3-3-3-3-x5-5-5-5-5-5-5-5-----------------|
E|-5-5-5-5-5-5-x----------------1-1-1-1-1-1-x3-3-3-3-3-3-3-3-----------------|

Guitar 2   mess with bends:
e|---------------------------------------------------------------------------|
B|-10----10-------10-10------------------------------------------------------|
G|-12b14----12b14----12b14---------------------------------------------------|
D|---------------------------------------------------------------------------|
A|---------------------------------------------------------------------------|
E|---------------------------------------------------------------------------|

Thats the whole song actually. Here's the order:

Intro
Verse
Chorus pt 1
Chorus pt 2
Intro
Verse
Chorus pt 1
Chorus pt 2
Chorus pt 1
Suggest correction
What's this?
You can suggest a correction to this tab. Community and Mods will review your correction and vote to approve or reject it.
comments
We did not receive enough feedback on this tab! Please rate:
print report bad tab
1 2 3 4 5
guest
You may want to rate the tab now too:
select rating
Please do not post tabs as comments. Select "correction" instead!