Oops, an error
Loading. Please wait.

It Goes Off Tab

version 3
version 3

Whole song

129 views 1 this week
1 commentread comment
1 2 3 4 5
2 more votes to show rating
add to favorites
launch autoscroll
font size
0
reset
how to read this tab
guitar tuner
Autoscroll
slow
fast
+/-
esc
set tempo
stop
Help us to improve Ultimate-Guitar.com Take our survey!
×
Author
-------------------------------------------------------------------------------
                             It Goes Off - Skybombers
-------------------------------------------------------------------------------
Tabbed by Sik666.
Learnt by ear, not perfect, but it sounds pretty correct.
Tuning: EADGBe ( standard ).

Guitar 1
Guitar 2
Additional guitar:
Guitar 3

Guitar 1 plays this 3 times with an effect like chorus. [00:00]
e|----------------------------------------------------------------|
B|---------------------------------5-5-5-5-5-5-5-5-5-5-5-5-5-5-55-|
G|-6-6-6-6-6-6-6-6-6-6-6-6-6-6-66--5-5-5-5-5-5-5-5-5-5-5-5-5-5-55-|
D|-7-7-7-7-7-7-7-7-7-7-7-7-7-7-77--5-5-5-5-5-5-5-5-5-5-5-5-5-5-55-|
A|-7-7-7-7-7-7-7-7-7-7-7-7-7-7-77--3-3-3-3-3-3-3-3-3-3-3-3-3-3-33-|
E|-5-5-5-5-5-5-5-5-5-5-5-5-5-5-55---------------------------------|

e|-----------------------------------------------------------------|
B|-7-7-7-7-7-7-7-7-7-7-7-7-7-7-7-7---------------------------------|
G|-7-7-7-7-7-7-7-7-7-7-7-7-7-7-7-7--6-6-6-6-6-6-6-6-6-6-6-6-6-6-66-|
D|-7-7-7-7-7-7-7-7-7-7-7-7-7-7-7-7--7-7-7-7-7-7-7-7-7-7-7-7-7-7-77-|
A|-5-5-5-5-5-5-5-5-5-5-5-5-5-5-5-5--7-7-7-7-7-7-7-7-7-7-7-7-7-7-77-|
E|----------------------------------5-5-5-5-5-5-5-5-5-5-5-5-5-5-55-|

Guitar 1 plays this 2 times with a little disto. [00:38]

e|------------------------------------------------------------------|
B|------------------------------------------------------------------|
G|----------------------------------5-5-5-5-5-5-5-5-5-5-5-5-5-5-5-5-|
D|-7-7-7-7-7-7-7-7-7-7-7-7-7-7-7-7--5-5-5-5-5-5-5-5-5-5-5-5-5-5-5-5-|
A|-7-7-7-7-7-7-7-7-7-7-7-7-7-7-7-7--3-3-3-3-3-3-3-3-3-3-3-3-3-3-3-3-|
E|-5-5-5-5-5-5-5-5-5-5-5-5-5-5-5-5----------------------------------|

e|------------------------------------------------------------------|
B|------------------------------------------------------------------|
G|-7-7-7-7-7-7-7-7-7-7-7-7-7-7-7-7----------------------------------|
D|-7-7-7-7-7-7-7-7-7-7-7-7-7-7-7-7--7-7-7-7-7-7-7-7-7-7-7-7-7-7-7-7-|
A|-5-5-5-5-5-5-5-5-5-5-5-5-5-5-5-5--7-7-7-7-7-7-7-7-7-7-7-7-7-7-7-7-|
E|----------------------------------5-5-5-5-5-5-5-5-5-5-5-5-5-5-5-5-|

Guitar 2 plays this 2 times. [00:38]

e|----------------------------------------------------------------|
B|---------------------------------5-5-5-5-5-5-5-5-5-5-5-5-5-5-55-|
G|-6-6-6-6-6-6-6-6-6-6-6-6-6-6-66--5-5-5-5-5-5-5-5-5-5-5-5-5-5-55-|
D|-7-7-7-7-7-7-7-7-7-7-7-7-7-7-77--5-5-5-5-5-5-5-5-5-5-5-5-5-5-55-|
A|-7-7-7-7-7-7-7-7-7-7-7-7-7-7-77--3-3-3-3-3-3-3-3-3-3-3-3-3-3-33-|
E|-5-5-5-5-5-5-5-5-5-5-5-5-5-5-55---------------------------------|

e|-----------------------------------------------------------------|
B|-7-7-7-7-7-7-7-7-7-7-7-7-7-7-7-7---------------------------------|
G|-7-7-7-7-7-7-7-7-7-7-7-7-7-7-7-7--6-6-6-6-6-6-6-6-6-6-6-6-6-6-66-|
D|-7-7-7-7-7-7-7-7-7-7-7-7-7-7-7-7--7-7-7-7-7-7-7-7-7-7-7-7-7-7-77-|
A|-5-5-5-5-5-5-5-5-5-5-5-5-5-5-5-5--7-7-7-7-7-7-7-7-7-7-7-7-7-7-77-|
E|----------------------------------5-5-5-5-5-5-5-5-5-5-5-5-5-5-55-|

Guitar 1. [01:00]

e|-----------|
B|-5---------|
G|-7b8r7-5-0-|
D|-----7-5-0-|
A|-----------|
E|-----------|

Guitar 2 plays this 2 times. [01:01] & [01:08]

e|---------|---------------------------------|
B|---------|---------------------------------|
G|---------|---------------------------------|
D|-7-7-7-7-|-5-5-5-5-5-5-5-5-5-5-5-5-5-5-5-5-|
A|-7-7-7-7-|-5-5-5-5-5-5-5-5-5-5-5-5-5-5-5-5-|
E|-5-5-5-5-|-3-3-3-3-3-3-3-3-3-3-3-3-3-3-3-3-|

Guitar 1 plays this 2 times: [01:02] & [01:09]

e|----------------------------------------------|
B|----------------------------------------------|
G|-5-7b8r7-7-5-7-5---------5-7-5-7b8r7-5-2-5-(2)|
D|-5-7b8r7-7-5-7-5---------5-7-5-7b8r7-5-2-5-(2)|
A|----------------------------------------------|
E|----------------------------------------------|

Guitar 1: [01:14]

e|---------------------------------|-------------------|
B|---------------------------------|-------------------|
G|---------------------------------|-------------------|
D|-3-3-3-3-3-3-3-3-3-3-3-3-3-3-3-3-|-5-5-5-5-5-5-5-5-5-|
A|-3-3-3-3-3-3-3-3-3-3-3-3-3-3-3-3-|-5-5-5-5-5-5-5-5-5-|
E|-1-1-1-1-1-1-1-1-1-1-1-1-1-1-1-1-|-3-3-3-3-3-3-3-3-3-|

Guitar 2: [01:14]

e|---------------------------------|
B|---------------------------------|
G|---------------------------------|
D|-x-x-x-x-x-x-x-x-x-x-x-x-x-x-x-x-|
A|-x-x-x-x-x-x-x-x-x-x-x-x-x-x-x-x-|
E|-x-x-x-x-x-x-x-x-x-x-x-x-x-x-x-x-|

Guitar 1 plays something like this many times, too hard to write exactly the pattern.: [01:19]

e|----------------|
B|-10----10-10----|
G|-12b14-12-12b14-|
D|----------------|
A|----------------|
E|----------------|

Guitar 2 can play the same things that the bass plays, 2 times. [01:19]

e|---------------------------------------------------------------------|
B|---------------------------------------------------------------------|
G|---------------------------------------------------------------------|
D|-7-7-7-7-7-7-7-7--1010101010101010--3-3-3-3-3-3-3-3--5-5-5-5-5-5-5-5-|
A|-7-7-7-7-7-7-7-7--8-8-8-8-8-8-8-8---3-3-3-3-3-3-3-3--5-5-5-5-5-5-5-5-|
E|-5-5-5-5-5-5-5-5--8-8-8-8-8-8-8-8---1-1-1-1-1-1-1-1--3-3-3-3-3-3-3-3-|

Guitar 2 plays the intro with the same effect than the intro, 3 times ( play it in the 
background of the first guitar ). [01:31]

e|----------------------------------------------------------------|
B|---------------------------------5-5-5-5-5-5-5-5-5-5-5-5-5-5-55-|
G|-6-6-6-6-6-6-6-6-6-6-6-6-6-6-66--5-5-5-5-5-5-5-5-5-5-5-5-5-5-55-|
D|-7-7-7-7-7-7-7-7-7-7-7-7-7-7-77--5-5-5-5-5-5-5-5-5-5-5-5-5-5-55-|
A|-7-7-7-7-7-7-7-7-7-7-7-7-7-7-77--3-3-3-3-3-3-3-3-3-3-3-3-3-3-33-|
E|-5-5-5-5-5-5-5-5-5-5-5-5-5-5-55---------------------------------|

e|-----------------------------------------------------------------|
B|-7-7-7-7-7-7-7-7-7-7-7-7-7-7-7-7---------------------------------|
G|-7-7-7-7-7-7-7-7-7-7-7-7-7-7-7-7--6-6-6-6-6-6-6-6-6-6-6-6-6-6-66-|
D|-7-7-7-7-7-7-7-7-7-7-7-7-7-7-7-7--7-7-7-7-7-7-7-7-7-7-7-7-7-7-77-|
A|-5-5-5-5-5-5-5-5-5-5-5-5-5-5-5-5--7-7-7-7-7-7-7-7-7-7-7-7-7-7-77-|
E|----------------------------------5-5-5-5-5-5-5-5-5-5-5-5-5-5-55-|

Guitar 1 plays this 2 times. [01:43]

e|------------------------------------------------------------------|
B|------------------------------------------------------------------|
G|----------------------------------5-5-5-5-5-5-5-5-5-5-5-5-5-5-5-5-|
D|-7-7-7-7-7-7-7-7-7-7-7-7-7-7-7-7--5-5-5-5-5-5-5-5-5-5-5-5-5-5-5-5-|
A|-7-7-7-7-7-7-7-7-7-7-7-7-7-7-7-7--3-3-3-3-3-3-3-3-3-3-3-3-3-3-3-3-|
E|-5-5-5-5-5-5-5-5-5-5-5-5-5-5-5-5----------------------------------|

e|------------------------------------------------------------------|
B|------------------------------------------------------------------|
G|-7-7-7-7-7-7-7-7-7-7-7-7-7-7-7-7----------------------------------|
D|-7-7-7-7-7-7-7-7-7-7-7-7-7-7-7-7--7-7-7-7-7-7-7-7-7-7-7-7-7-7-7-7-|
A|-5-5-5-5-5-5-5-5-5-5-5-5-5-5-5-5--7-7-7-7-7-7-7-7-7-7-7-7-7-7-7-7-|
E|----------------------------------5-5-5-5-5-5-5-5-5-5-5-5-5-5-5-5-|

Guitar 1: [02:05]

e|-----------|
B|-5---------|
G|-7b8r7-5-0-|
D|-----7-5-0-|
A|-----------|
E|-----------|

Guitar 2 plays this 2 times: [02:07] & [02:14]

e|---------|---------------------------------|
B|---------|---------------------------------|
G|---------|---------------------------------|
D|-7-7-7-7-|-5-5-5-5-5-5-5-5-5-5-5-5-5-5-5-5-|
A|-7-7-7-7-|-5-5-5-5-5-5-5-5-5-5-5-5-5-5-5-5-|
E|-5-5-5-5-|-3-3-3-3-3-3-3-3-3-3-3-3-3-3-3-3-|

Guitar 1 plays this 2 times: [02:08] & [02:15]

e|----------------------------------------------|
B|----------------------------------------------|
G|-5-7b8r7-7-5-7-5---------5-7-5-7b8r7-5-2-5-(2)|
D|-5-7b8r7-7-5-7-5---------5-7-5-7b8r7-5-2-5-(2)|
A|----------------------------------------------|
E|----------------------------------------------|

Guitar 1: [02:19]

e|---------------------------------|-------------------|
B|---------------------------------|-------------------|
G|---------------------------------|-------------------|
D|-3-3-3-3-3-3-3-3-3-3-3-3-3-3-3-3-|-5-5-5-5-5-5-5-5-5-|
A|-3-3-3-3-3-3-3-3-3-3-3-3-3-3-3-3-|-5-5-5-5-5-5-5-5-5-|
E|-1-1-1-1-1-1-1-1-1-1-1-1-1-1-1-1-|-3-3-3-3-3-3-3-3-3-|

Guitar 1 plays again this, but 2 times longer. [02:24]

e|----------------|
B|-10----10-10----|
G|-12b14-12-12b14-|
D|----------------|
A|----------------|
E|----------------|

Guitar 2 in the background can play this bass part again, 2 times longer too.

e|---------------------------------------------------------------------|
B|---------------------------------------------------------------------|
G|---------------------------------------------------------------------|
D|-7-7-7-7-7-7-7-7--1010101010101010--3-3-3-3-3-3-3-3--5-5-5-5-5-5-5-5-|
A|-7-7-7-7-7-7-7-7--8-8-8-8-8-8-8-8---3-3-3-3-3-3-3-3--5-5-5-5-5-5-5-5-|
E|-5-5-5-5-5-5-5-5--8-8-8-8-8-8-8-8---1-1-1-1-1-1-1-1--3-3-3-3-3-3-3-3-|

And here comes finally the additionnal guitar, it's hard to hear these notes, indeed i 
think this part of my tab is not complete, so turn your sound louder! ( Under lines, read 
when you have to start playing each note. )

e|--------------------------------------------|
B|-5-6-5-----1--3-6-5---12--12-----12--12-13~-|
G|------------------------10--10--------------|
D|--------------------------------------------|
A|--------------------------------------------|
E|--------------------------------------------|
   [02:29]   [02:34]    [02:41]    [02:45]

Guitar 2 plays this 2 times. [02:48] & [02:53]

e|---------|---------------------------------|
B|---------|---------------------------------|
G|---------|---------------------------------|
D|-7-7-7-7-|-5-5-5-5-5-5-5-5-5-5-5-5-5-5-5-5-|
A|-7-7-7-7-|-5-5-5-5-5-5-5-5-5-5-5-5-5-5-5-5-|
E|-5-5-5-5-|-3-3-3-3-3-3-3-3-3-3-3-3-3-3-3-3-|

Guitar 1 plays this 2 times. [02:49] & [02:54]

e|----------------------------------------------|
B|----------------------------------------------|
G|-5-7b8r7-7-5-7-5---------5-7-5-7b8r7-5-2-5-(2)|
D|-5-7b8r7-7-5-7-5---------5-7-5-7b8r7-5-2-5-(2)|
A|----------------------------------------------|
E|----------------------------------------------|

Guitar 1: [02:59]

e|---------------------------------|-------------------|
B|---------------------------------|-------------------|
G|---------------------------------|-------------------|
D|-3-3-3-3-3-3-3-3-3-3-3-3-3-3-3-3-|-5-5-5-5-5-5-5-5-5-|
A|-3-3-3-3-3-3-3-3-3-3-3-3-3-3-3-3-|-5-5-5-5-5-5-5-5-5-|
E|-1-1-1-1-1-1-1-1-1-1-1-1-1-1-1-1-|-3-3-3-3-3-3-3-3-3-|

Guitar 2: [02:59]

e|---------------------------------|
B|---------------------------------|
G|---------------------------------|
D|-x-x-x-x-x-x-x-x-x-x-x-x-x-x-x-x-|
A|-x-x-x-x-x-x-x-x-x-x-x-x-x-x-x-x-|
E|-x-x-x-x-x-x-x-x-x-x-x-x-x-x-x-x-|

That's it!
Suggest correction
Give kudos to tab author, rate the tab!
1 2 3 4 5
comments
print report bad tab
1 comment total.
0 reply
uriel.armstrong 10 May 01, 2014 07:35 PM

Excellent i love it, Thanks!!!

guest
You may want to rate the tab now too:
select rating
Wanna post a correction for this tab? Suggest correction