Oops, an error
Loading. Please wait.

Our Dying Island Tab

239 views 1 this week
no commentswrite comment
1 2 3 4 5
please rate
add to favorites
launch autoscroll
font size
0
reset
how to read this tab
guitar tuner
Autoscroll
slow
fast
+/-
esc
set tempo
stop
Help us to improve Ultimate-Guitar.com Take our survey!
×
Skyclad

Our Dying Island
from Wayward Sons of Mother Earth (1991 Noise Records)

Tabbed by: Max
m.beaven@att.net


* Tab key at end of page
------------------------------------------------------------------------------------


Intro - Repeat 8x

E|----------------------------------------------------------------------------------|
B|----------------------------------------------------------------------------------|
G|---------------------------------------------------------------------------------.|
D|-15-0-0-17-0-0-15-0-0-14-0-0-13h14p13p0--12-0-0-14-0-0-12-0-0-11-0-0-11h12p11p0--.|
A|----------------------------------------------------------------------------------|
E|----------------------------------------------------------------------------------|

Gtr 2 - (Play on 3rd/4th time and 7th/8th time with above)

E|----------------------------------------------------------------------------------|
B|----------------------------------------------------------------------------------|
G|---------------------------------------------------------------------------------.|
D|---------------------------------------------------------------------------------.|
A|--7-0-0--8-0-0--7-0-0--5-0-0--5h-7p-5p0---3-0-0--5-0-0--3-0-0--2-0-0--2h-3p-2p0---|
E|----------------------------------------------------------------------------------|

End Intro                  Gtr 2

E |-----------------9-10--:---------------------|
B |------------9-10-------:----------------9-10-|
G |-------9-10------------:------6-7--9-10------|
D |-11-12-----------------:--6-7----------------|
A |-----------------------:---------------------|
E |-----------------------:---------------------|

Verse A
I woke from my daydream...

E |--------------------------------------------------------------------|
B |--------------------------------------------------------------------|
G |--------------------------------------------------------------------|
D |-7-----8-----7---5-----6-----5----4-4444-4-4444-5--4-4444-4-4444-5--|
A |---5-5---5-5---5---3-3---3-3---3--2-2222-2-2222-3--2-2222-2-2222-3--|
E |--------------------------------------------------------------------|

E |--------------------------------------------------------------------|
B |--------------------------------------------------------------------|
G |--------------------------------------------------------------------|
D |----------------------------------4-4444-4-4444-5--4-4444-4-4444-5--|
A |-7-----8-----7---5-----6-----5----2-2222-2-2222-3--2-2222-2-2222-3--|
E |---5-5---5-5---5---3-3---3-3---3------------------------------------|

E |---------------------------------------------------------------------|
B |---------------------------------------------------------------------|
G |---------------------------------------------------------------------|
D |-9-----10-----9----7-----8-----7----5-----6-----5----4-----5-----4---|
A |---7-7----7-7---7----5-5---5-5---5----3-3---3-3---3----2-2---2-2---2-|
E |---------------------------------------------------------------------|

                                       But our planet...

E |------------------------------------------------|
B |------------------------------------------------|
G |------------------------------------------------|
D |------------------------------------------------|
A |-7-----8-----7----5-----6-----5---2-2/--3b4r3-3-|
E |---5-5---5-5---5----3-3---3-3---3-0-2/----------|


Verse B
It dies for the want of more...

E|-------------------------------------------------------------------------|
B|-------------------------------------------------------------------------|
G|-------------------------------------------------------------------------|
D|------h2p0--------------------------------h2p0---------------------------|
A|-2-22------h3p2p0--------4-4444-5-5--2-22------h3p2p0--------4-4444-5-5--|
E|-0-00-------------h3p2p0-2-2222-3-3--0-00-------------h3p2p0-2-2222-3-3--|

E|-------------------------------------------------------------------------|
B|-------------------------------------------------------------------------|
G|-------------------------------------------------------------------------|
D|------h5p3p2p0---------------------------h2p0----------------------------|
A|-2-22----------h5p3p2p0-4-4444-5-5--2-22------h3p2p0--------4-4444-2-2---|
E|-0-00-------------------2-2222-3-3--0-00-------------h3p2p0-2-2222-0-0---|

You say...

E|-------------------------------------------------------------------------|
B|-------------------------------------------------------------------------|
G|------h2p0---------------------------------------------------------------|
D|-2-22------h3p2p0--------4-4444-5-5--2-22-h2p0---------------------------|
A|-0-00-------------h3p2p0-2-2222-3-3--0-00------h3p2p0--------2-2222-3-3--|
E|------------------------------------------------------h3p2p0-2-2222-3-3--|

E|---------------------------------------------------------------------------------|
B|---------------------------------------------------------------------------------|
G|---------------------------------------------------------------------------------|
D|------h2p0--------------------------------h2p0-----------------------------------|
A|-2-22------h3p2p0--------4-4444-5-5--2-22------h3p2p0--------4-4444-2-2-444444-0-|
E|-0-00-------------h3p2p0-2-2222-3-3--0-00-------------h3p2p0-2-2222-0-0-222222-0-|


Verse C - Repeat 4x
Tell me just what kind of fools...

E|----------------------------------------------------------------------------------|
B|----------------------------------------------------------------------------------|
G|----------------------------------------------------------------------------------|
D|-9-11-12----11-----12----11-----9--11---12----11-----12----11-----9--11---9-------|
A|-7--9-10-----9-----10-----9-----7---9---10-----9-----10-----9-----7---9---7-------|
E|---------0-0---0-0----0-0---0-0---0---0----0-0---0-0----0-0---0-0---0---0---0-0-0-|

E |--------------------------------------------------|        |---------|
B |--------------------------------------------------|        |---------|
G |-------------------------------------------------.|        |---------|
D |-9---------------9--11---9-------9---------------.|        |---------|
A |-7---------------7---9---7-------7----------------|  On 4th|---------|
E |---0-0-0-0-0-0-0---0---0---0-0-0---0-0-0-0-0-0-0--|   time:|-0-0-0-0-|

Fill A

E |------------------------------|
B |------------------------------|
G |------------------------------|
D |--10-9\7-9-7-\5-7-5-4-7-5-4\2-|
A |------------------------------|
E |------------------------------|

Chorus - Repeat 4x

E|---------------------------------------------------------------------------|
B|---------------------------------------------------------------------------|
G|--------------------------------------------------------------------------.|
D|--2-4-44-4-44-4-44-4-44-4-44-4-44-4-44-4-7-9------9-7------7-5------5-5-4-.|
A|--0-2-22-2-22-2-22-2-22-2-22-2-22-2-22-2-5-7-7777-7-5-5555-5-3-3333-3-3-2--|
E|---------------------------------------------------------------------------|

E |------------------------|
B |------------------------|
G |------------------------|
D |-2-4-----------10-9-7-9-|
A |-0-2---6-5-4-5--8-7-5-7-|
E |-------4-3-2-3----------|

Repeat Intro 4x

Repeat Verses A, B, C and Chorus

Fill B

E |----------------------------------------------------------------|
B |----------------------------------------------------------------|
G |----------------------------------------------------------------|
D |----------5\4----------4\2----------2p0-------------------------|
A |-7-7777-7-----5-5555-5-----3-3333-3-----2-2222-2--0-0000-0-3\2--|
E |----------------------------------------------------------------|


E |------------------------------------|
B |------------------------------------|
G |------------------------------------|
D |---------------------------4-4444-4-|
A |----------2p0--------------2-2222-2-|
E |-3-3333-3-----2-2222-2-0-2----------|

Verse D
If we think that the world...

E |------------------------------------------------------------|
B |------------------------------------------------------------|
G |------------------------------------------------------------|
D |-999-9--777-7--555-5--444-4--222-2-------------------444-4--|
A |-777-7--555-5--333-3--222-2--000-0--555-5--444-4-2-4-222-2--|
E |------------------------------------333-3--222-2-0-2--------|

E |------------------------------------------------------------|
B |------------------------------------------------------------|
G |------------------------------------------------------------|
D |-9-9999-9-7\5-7-7777-7-5\4-5-5555-5\4-2-4-4444-4--2-2222-2--|
A |-7-7777-7-5\3-5-5555-5-3\2-3-3333-3\2-0-2-2222-2--0-0000-0--|
E |------------------------------------------------------------|

E |----------------------------------|
B |----------------------------------|
G |----------------------------------|
D |----------------------------------|
A |-5\4-5-5555-5\4-2-4-4444-4-2-4-2--|
E |-3\2-3-3333-3\2-0-2-2222-2-0-2-0--|

Repeat Fill B

Solo - Repeat 2x

E |-----------------------------------------------|
B |-----------------------------------------------|
G |----------------------------------------------.|
D |-------------------------------9-9--------9-9-.|
A |-3-33-3-3-3333-3-33-3-5-222222-7-7-222222-7-7--|
E |-1-11-1-1-1111-1-11-1-3-000000-----000000------|

Verse E - Repeat 4x
Now we hold the future...                                          Judgement
Day...

E |-----------------------------------------------|             |-------------|
B |-----------------------------------------------|             |-------------|
G |----------------------------------------------.|             |------------.|
D |-------------------------------9-9--------9-9-.|             |------------.|
A |-3-33-3-3-3333-3-33-3-5-222222-7-7-222222-7-7--|      On 4th |-222222-3-2--|
E |-1-11-1-1-1111-1-11-1-3-000000-----000000------|        time:|-000000-1-0--|

Repeat solo 2x

Repeat Verse E 4x

Repeat Chorus 8x

On 8th time:

E |----------------------------------------------------------------|
B |----------------------------------------------------------------|
G |----------------------------------------------------------------|
D |--2-4-44-4-44-4-44-4-44-4-44-4-44-4-44-4-7-9------9-7------7-9--|
A |--0-2-22-2-22-2-22-2-22-2-22-2-22-2-22-2-5-7-7777-7-5-5555-5-7--|
E |----------------------------------------------------------------|


--------------------------------------------------------------------------------------


* Tab Key
-------------
h = Hammer-on
p = Pull-off
/ = Slide
Suggest correction
What's this?
You can suggest a correction to this tab. Community and Mods will review your correction and vote to approve or reject it.
comments
We did not receive enough feedback on this tab! Please rate:
print report bad tab
1 2 3 4 5
guest
You may want to rate the tab now too:
select rating
Please do not post tabs as comments. Select "correction" instead!