Oops, an error
Loading. Please wait.

Spinning Jenny Tab

13 views 6 this week
no commentswrite comment
1 2 3 4 5
3 more votes to show rating
add to favorites
launch autoscroll
font size
0
reset
how to read this tab
guitar tuner
Autoscroll
slow
fast
+/-
esc
set tempo
stop
Help us to improve Ultimate-Guitar.com Take our survey!
×
Author
Difficulty
intermediate
About this tab version
Guitar approximation of the song. Was this info helpful? Yes No
She came down from the Western Hills when we were not prepared
I turned deaf ears to words of warning now I'm running scared.
Casting caution to the wind now that the cat's away
I say my grace - fill my face (then for forgiveness pray).
God knows I was an honest man - the same as any other
Who loved his wife - worked all his life to keep his family
Until the 'beast' that never sleeps beneath my silken covers
Reared it's head and bit it's thumb at my morality.

Chorus:
Her passion for passion - it will devour
Cruel are the thorns of this delicate flower
Her lust for lust - it will consume
A siren song summons all men to their doom.
She whispered of her innocence - (a plea I must contest)
While baptising helpless sinners with a missionary zest
She will exorcise your demons - then exercise your thighs
Await your 'second-coming' with a hunger in her eyes.
Her sweetmeats are the souls of men - she'll gorge herself to bursting
And for yours her heart is thirsting - as a spider craves a fly
No mortal man could ever hope to suit her as a suitor
Sh'll rewrite the Kama Sutra if you'd care to watch her try.

Repeat Chorus
I reach for heaven - desire drags me down
When fools choose their king I'll be heir to that crown
A strange kind of madness I cannot condone
If you are without sin come cast the first stone.

[Intro]
e|-------------------------|-------------------------|
B|-------------------------|-------------------------|
G|-------------------------|-------------------------|
D|-2---4--4---------0------|-2-4-5--4-2--------------|
A|-0---2--2---0--2-----2---|------------5--4-2-0--2--|
E|-------------------------|-------------------------|


e|-------------------------|-------------------------|
B|-------------------------|-------------------------|
G|-------------------------|-------------------------|
D|-2---4--4---------2------|-2-4-5--4-2--------------|
A|-0---2--2---0--2-----4---|------------5--4-2-0--2--|
E|-------------------------|-------------------------|


e|-------------------------|-------------------------|
B|-------------------------|-------------------------|
G|-------------------------|-------------------------|
D|------------4--2---------|-2-4-5--4-2--------------|
A|-0---2--2--------5--2----|------------5--4-2-0--2--|
E|-------------------------|-------------------------|


e|-------------------------|-------------------------|
B|-------------------------|-------------------------|
G|-------------------------|-------------------------|
D|------------------2------|-2-4-5--4-2--------------|
A|-0---2--2---0--2-----4---|------------5--4-2-0--2--|
E|-------------------------|-------------------------|


[Verse x4]
She came down from the      Western Hills when we 
e|-------------------------|-------------------------|
B|-------------------------|-------------------------|
G|-------------------------|-------------------------|
D|-2-----------------------|-6-----------------------|
A|-0--0-0-0--0--0--0--0----|-4--4-4-4--4--4--4--4----|
E|-------------------------|-------------------------|
were not prepared
e|-------------------------|-------------------------|
B|-------------------------|-------------------------|
G|-------------------------|-------------------------|
D|-4-----------------------|-4-----------------------|
A|-2--2-2-2----4----2----0-|-2--2-2-2----4----2----0-|
E|-------------------------|-------------------------|

[Pre-Chorus x4]
God knows I was an          honest man - 
e|-------------------------|-------------------------|
B|-------------------------|-------------------------|
G|-------------------------|-------------------------|
D|-7------------7--7--7----|-9-----------------------|
A|-5--5-5-5-5---5--5--5----|-7--7-7-7-7---7--5--4----|
E|-------------------------|-------------------------|

the same as any other
e|-------------------------|-------------------------|
B|-------------------------|-------------------------|
G|-------------------------|-------------------------|
D|-4-----------------------|-4-----------------------|
A|-2--2-2-2----4----2----0-|-2--2-2-2----4----2----0-|
E|-------------------------|-------------------------|


[Chorus same as intro]
[Verse x4]
[Pre-Chorus x4] 

[Violin Solo x4]
e|-------------------------|-------------------------|
B|-------------------------|-------------------------|
G|-------------------------|-------------------------|
D|-------------------------|-------------------------|
A|-4--4-4-4--4--4--4--4----|-4--4-4-4--4--4--4--4----|
E|-2--2-2-2--2--2--2--2----|-2--2-2-2--2--2--2--2----|

e|-------------------------|-------------------------|
B|-------------------------|-------------------------|
G|-------------------------|-------------------------|
D|-4-----------------------|-4-----------------------|
A|-2--2-2-2----4----2----0-|-2--2-2-2----4----2----0-|
E|-------------------------|-------------------------|

[Violin Solo Part2 x3]
e|-------------------------|-------------------------|
B|-------------------------|-------------------------|
G|-------------------------|-------------------------|
D|-7------------7--7--7----|-9-----------------------|
A|-5--5-5-5-5---5--5--5----|-7--7-7-7-7---7--5--4----|
E|-------------------------|-------------------------|

e|-------------------------|-------------------------|
B|-------------------------|-------------------------|
G|-------------------------|-------------------------|
D|-4-----------------------|-4-----------------------|
A|-2--2-2-2----4----2----0-|-2--2-2-2----4----2----0-|
E|-------------------------|-------------------------|

[Violin Solo Part3 x1]
e|-------------------------|-------------------------|
B|-------------------------|-------------------------|
G|-------------------------|-------------------------|
D|-2-----------------------|-6-----------------------|
A|-0--0-0-0--0--0--0--0----|-4--4-4-4--4--4--4--4----|
E|-------------------------|-------------------------|

e|-------------------------|-------------------------|
B|-------------------------|-------------------------|
G|-------------------------|-------------------------|
D|-4-----------------------|-4-----------------------|
A|-2--2-2-2----4----2----0-|-2--2-2-2----4----2----0-|
E|-------------------------|-------------------------|


[Chorus]

[End]
e|----------------------------|-------------------------|
B|----------------------------|-------------------------|
G|----------------------------|-------------------------|
D|-2-4-5--4-2----2-4-5--4-2---|-2-4-5--4-2-----------4--|
A|------------5-------------5-|------------5--4-2-0--2--|
E|----------------------------|-------------------------|
Suggest correction
Give kudos to tab author, rate the tab!
1 2 3 4 5
comments
print report bad tab
guest
You may want to rate the tab now too:
select rating
Wanna post a correction for this tab? Suggest correction