Oops, an error
Loading. Please wait.

Still Small Beer Bass Tab

version 1
version 1

Whole song

118 views 1 this week
no commentswrite comment
1 2 3 4 5
please rate
add to favorites
launch autoscroll
font size
0
reset
guitar tuner
Autoscroll
slow
fast
+/-
esc
set tempo
stop
Help us to improve Ultimate-Guitar.com Take our survey!
×
Difficulty
novice
---------------------------------------------------------
	       Still small beers - Skyclad
---------------------------------------------------------

Tabbed By : English96 
e-mail: English_828@hotmail.com

Tuning: standard

I am the son of the bassist so it should be right!

Intro X4
G|------------------------------------------------------|
D|------------------------------------------------------|
A|-------------------------333322-----------------------|
E|-55-55-7-55-55-3-55-55-3-------33---------------------|

Verse X2
G|------------------------------------------------------|
D|------------------------------------------------------|
A|-------------------------333322-----------------------|
E|-55-55-7-55-55-3-55-55-3-------33---------------------|

Pre-chorus
X2
G|------------------------------------------------------|
D|------------------------------------------------------|
A|------------22223333----------------------------------|
E|--33-3-3-33----------55-55-3-55-55-3------------------|

G|------------------------------------------------------|
D|------------------------------------------------------|
A|--55-5-5-55-33332222----------------------------------|
E|---------------------55-55-3-55-55-3------------------|

G|------------------------------------------------------|
D|------------------------------------------------------|
A|--55-5-5-55-33332222-333344445555-5/12\5--------------|
E|------------------------------------------------------|

Chorus X2
G|------------------------------------------------------|
D|------------------------------------------------------|
A|-------------------------333322-----------------------|
E|-55-55-7-55-55-3-55-55-3-------33---------------------|

Intro X2
G|------------------------------------------------------|
D|------------------------------------------------------|
A|-------------------------333322-----------------------|
E|-55-55-7-55-55-3-55-55-3-------33---------------------|

Verse X2
G|------------------------------------------------------|
D|------------------------------------------------------|
A|-------------------------333322-----------------------|
E|-55-55-7-55-55-3-55-55-3-------33---------------------|

Pre-chorus
X2
G|------------------------------------------------------|
D|------------------------------------------------------|
A|------------22223333----------------------------------|
E|--33-3-3-33----------55-55-3-55-55-3------------------|

G|------------------------------------------------------|
D|------------------------------------------------------|
A|--55-5-5-55-33332222----------------------------------|
E|---------------------55-55-3-55-55-3------------------|

G|------------------------------------------------------|
D|------------------------------------------------------|
A|--55-5-5-55-33332222-333344445555-5/12\5--------------|
E|------------------------------------------------------|

Chorus X3
G|------------------------------------------------------|
D|------------------------------------------------------|
A|-------------------------333322-----------------------|
E|-55-55-7-55-55-3-55-55-3-------33---------------------|


Then do this at the end of the chorus
G|------------------------------------------------------|
D|------------------------------------------------------|
A|--------------------------10-8-7----------------------|
E|--55-55-7-55-55-3-55-55-7--------8--------------------|

Bridge X4
G|------------------------------------------------------|
D|------------------------------------------------------|
A|--0-0h2-3-2h3-5-3-2-----------------------------------|
E|--------------------5---------------------------------|


Pre-chorus
X2
G|------------------------------------------------------|
D|------------------------------------------------------|
A|------------22223333----------------------------------|
E|--33-3-3-33----------55-55-3-55-55-3------------------|

G|------------------------------------------------------|
D|------------------------------------------------------|
A|--55-5-5-55-33332222----------------------------------|
E|---------------------55-55-3-55-55-3------------------|

G|------------------------------------------------------|
D|------------------------------------------------------|
A|--55-5-5-55-33332222-333344445555-5/12\5--------------|
E|------------------------------------------------------|


Chorus X3
G|------------------------------------------------------|
D|------------------------------------------------------|
A|-------------------------333322-----------------------|
E|-55-55-7-55-55-3-55-55-3-------33---------------------|


Then do this at the end of the chorus
G|------------------------------------------------------|
D|------------------------------------------------------|
A|--------------------------10-8-7----------------------|
E|--55-55-7-55-55-3-55-55-7--------8-5------------------|

THE END

| /  slide up
| \  slide down
| h  hammer-on
| p  pull-off
| ~  vibrato
| +  harmonic
| x  Mute note
===============================================================================

Suggest correction
What's this?
You can suggest a correction to this tab. Community and Mods will review your correction and vote to approve or reject it.
comments
We did not receive enough feedback on this tab! Please rate:
print report bad tab
1 2 3 4 5
guest
You may want to rate the tab now too:
select rating
Please do not post tabs as comments. Select "correction" instead!