Oops, an error
Loading. Please wait.

Its Terror Time Again tab

version 1
version 1

Whole song

7,531 views 15 this week
3 commentsread comments
1 2 3 4 5
x 5
add to favorites
×
Save as Personal and add changes to this tab that will be seen only by you. Learn more ›
×
You can save this tab as Personal to edit and correct it or add notes. All changes will be seen only by you. Learn more »
launch autoscroll
font size
0
reset
how to read this tab
guitar tuner
edit
Autoscroll
slow
fast
+/-
esc
set tempo
stop
Author
Difficulty
-------------------------------------------------------------------------------
               (Its) Terror Time Again - Skycycle
http://www.answers.com/topic/skycycle (they do exist)
-------------------------------------------------------------------------------
fun, catchy song from that scooby doo movie. listen to it for the strumming patterns. 
I'm notating is the general beat (one note on tab = quarter note).
Tabbed by: rvaen
Email: andy@lazysranch.org

Tuning: Standard

intro
e|-----------------------------------|
B|-----------------------------------|
G|--7-5-7---7-5-7---7-5-7---7-5-7----|
D|--7-5-7---7-5-7---7-5-7---7-5-7----|
A|--5-3-5---5-3-5---5-3-5---5-3-5----|
E|--------4~------5~------4~---------|

verse A
   D     C Bb      C   G   C#
e|------------------------------------------------|
B|--------------------------6-6-6-6---------------|
G|--7-7-7-5-3-3-3-3-5-5-4-4-6-6-6-6---------------|
D|--7-7-7-5-3-3-3-3-5-5-5-5-x-x-x-x---------------|
A|--5-5-5-3-1-1-1-1-3-3-5-5-4-4-4-4---------------|
E|----------------------3-3-----------------------|

chorus (virtually the same as verse)
   D     C Bb      G       C#
e|----------------------------------------------|
B|--------------------------6-6-6-6-------------|
G|--7-7-7-5-3-3-3-3-4-4-4-4-6-6-6-6-------------|  x2
D|--7-7-7-5-3-3-3-3-5-5-5-5-x-x-x-x-------------|
A|--5-5-5-3-1-1-1-1-5-5-5-5-4-4-4-4-------------|
E|------------------3-3-3-3---------------------|

bridge A
e|------------------|
B|------------------|
G|--7-5-7---7-5-7---|
D|--7-5-7---7-5-7---|
A|--5-3-5---5-3-5---|
E|--------4~--------|

verse A

chorus

bridge B
e|----------|
B|----------|
G|--7-5-7---|
D|--7-5-7---|
A|--5-3-5---|
E|----------|

verse B

D|----------------------------------------------------------`7-`7-|
A|----------------------------------------------------------`7-`7-|
E|-00000000111111113333333355555555666666669999999910101010-`5-`5-|
                                               (4x10)^     off-beat
chorus                                         not

intro riff

SOLO (over verse A changes)
         D        C Bb        C         G   C#
e|------------------4-5-----------------5--------------------|
B|------------6---------6-----6-8-8-8-6---8-5----------------|
G|-7-7-5-7--7------------------------------------------------|
D|-----------------------------------------------------------|
A|-----------------------------------------------------------|
E|-----------------------------------------------------------|

chorus

bridge A

verse B

chorus

last chord
    D
e|-------------------|
B|-------------------|
G|--7\---------------|
D|--7\---------------|
A|--5\---------------|
E|-------------------|

| /  slide up
| \  slide down
| h  hammer-on
| p  pull-off
| ~  vibrato
| +  harmonic
| x  Mute note
===============================================================================

            
            
Suggest correction
Creating personal tab
Creating personal tab
You can edit any tab online and save it as your Personal.

You can edit, replace or remove any tab part or add personal notes – all changes will be seen only by you.

Personal tabs can be accessed anytime from any device, even offline.
Learn more »
comments
print report bad tab
3 comments total.
+3 reply
saved by music 57 Mar 29, 2008 08:10 PM

hey, youre awesome! i just watched that movie today and thought i would look up the song, and your the only one who has it! thanks!
correction: i think maybe he does this:
E|-----------------------------
B|-----------------------------
G|--7-5-7-----7-5-7-----7-5-7--
D|--7-5-7-6~--7-5-7-7~--7-5-7--
A|--5-3-5-----5-3-5-----5-3-5--
E|--------4~--------5~---------

instead of just doing one bass note each time.
thanks bud.

+1 reply
TheThirdDay 553 Feb 13, 2010 09:19 AM

I believe the intro goes like this.

e|----------------------------------------------------------------------|
b|-----------10---------------11----------------10----------------------|
g|-----------9----------------10----------------9-----------------------|
d|-7---5---7--------7---5---7---------7---5---7--------7---5---7--------|
a|-5---3---5--------5---3---5---------5---3---5--------5---3---5--------|
e|----------------------------------------------------------------------|

0 reply
CherokeShredder 2,033 Aug 18, 2014 11:09 AM

Instead of C#, try A. Sounds more balanced to me. Other than that, awesome tab. As for the intro, either method (the one posted as the official or the ones suggested in the comments) work for the song.

guest
You may want to rate the tab now too:
select rating
Wanna post a correction for this tab? Suggest correction