Oops, an error
Loading. Please wait.

The Ghost Is Here tab

25 views 1 this week
no commentswrite comment
1 2 3 4 5
3 more votes to show rating
add to favorites
×
Save as Personal and add changes to this tab that will be seen only by you. Learn more ›
×
You can save this tab as Personal to edit and correct it or add notes. All changes will be seen only by you. Learn more »
launch autoscroll
font size
0
reset
how to read this tab
guitar tuner
edit
Autoscroll
slow
fast
+/-
esc
set tempo
stop
About this tab version
It's the only one on here. Was this info helpful? Yes No
[Intro]
e|---------------------------------------------------------------------------|
B|---------------------------------------------------------------------------|
G|---------------------------------------------------------------------------|
D|---5----3----5b1/4STEPp3---------5----3----5b1/4STEPp3---------------------|
A|---------------------------------------------------------------------------|
E|---------------------------------------------------------------------------|
    1      2   3 e +    4          1     2   3 e +     4

[Verse]
e|----------------------------------------------------------------------------------|
B|----------------------------------------------------------------------------------|
G|---7----7----7----7----7----7----7----7----7----7----7----7----7----7----7----7---|
D|---5----5----5----5----5----5----5----5----5----5----5----5----5----5----5----5---|
A|----------------------------------------------------------------------------------|
E|----------------------------------------------------------------------------------|
     1    +    2    +    3    +    4    +    1    +    2    +    3    +    4    + 
e|----------------------------------------------------------------------------------|
B|----------------------------------------------------------------------------------|
G|---7----7----7----7----7----7----7----7----7----7----7----7----7----7----7----7---|
D|---5----5----5----5----5----5----5----5----5----5----5----5----5----5----5----5---|
A|----------------------------------------------------------------------------------|
E|----------------------------------------------------------------------------------|
     1    +    2    +    3    +    4    +    1    +    2    +    3    +    4    +

[Chorus]
e|---------------------------------------------------------------------------|
B|---------------------------------------------------------------------------|
G|---------------------------------------------------------------------------|
D|--5-------------------3-------------------5----------------3---------------|
A|--5-------------------3-------------------5----------------3---------------|
E|--3-------------------1-------------------3----------------1---------------|
    1    2    3    4    1    2    3    4    1   2   3   4    1    2    3    4   

e|---------------------------------------------------------------------------|
B|---------------------------------------------------------------------------|
G|---------------------------------------------------------------------------|
D|---5-------------------5---------------------------------------------------|
A|---5-------------------5---------------------------------------------------|
E|---3-------------------1---------------------------------------------------|
     1    2    3    4    1    2    3    4

[Bridge]
e|---------------------------------------------------------------------------|
B|---------------------------------------------------------------------------|
G|---------------------------------------------------------------------------|
D|---5----3----5b1/4STEPp3---------5----3----5b1/4STEPp3---------------------|
A|---------------------------------------------------------------------------|
E|---------------------------------------------------------------------------|
    1      2   3 e +    4          1     2   3 e +     4

[Verse]
e|----------------------------------------------------------------------------------|
B|----------------------------------------------------------------------------------|
G|---7----7----7----7----7----7----7----7----7----7----7----7----7----7----7----7---|
D|---5----5----5----5----5----5----5----5----5----5----5----5----5----5----5----5---|
A|----------------------------------------------------------------------------------|
E|----------------------------------------------------------------------------------|
     1    +    2    +    3    +    4    +    1    +    2    +    3    +    4    + 
e|----------------------------------------------------------------------------------|
B|----------------------------------------------------------------------------------|
G|---7----7----7----7----7----7----7----7----7----7----7----7----7----7----7----7---|
D|---5----5----5----5----5----5----5----5----5----5----5----5----5----5----5----5---|
A|----------------------------------------------------------------------------------|
E|----------------------------------------------------------------------------------|
     1    +    2    +    3    +    4    +    1    +    2    +    3    +    4    +

[Chorus]
e|---------------------------------------------------------------------------|
B|---------------------------------------------------------------------------|
G|---------------------------------------------------------------------------|
D|--5-------------------3-------------------5----------------3---------------|
A|--5-------------------3-------------------5----------------3---------------|
E|--3-------------------1-------------------3----------------1---------------|
    1    2    3    4    1    2    3    4    1   2   3   4    1    2    3    4   

e|---------------------------------------------------------------------------|
B|---------------------------------------------------------------------------|
G|---------------------------------------------------------------------------|
D|---5-------------------5---------------------------------------------------|
A|---5-------------------5---------------------------------------------------|
E|---3-------------------1---------------------------------------------------|
     1    2    3    4    1    2    3    4

[Interlude]
e|-------------------------------------------------------------------------------|
B|-------------------------------------------------------------------------------|
G|--7----7----7----7----7----7----7----7----5---5---5---5----5----5----5----5----|
D|--5----5----5----5----5----5----5----5----3---3---3---3----3----3----3----3----|
A|-------------------------------------------------------------------------------|
E|-------------------------------------------------------------------------------|
    1    2    3    4    1    2    3    4    1   2   3   4    1    2    3    4  

e|-------------------------------------------------------------------------------|
B|-------------------------------------------------------------------------------|
G|--7----7----7----7----7----7----7----7----5---5---5---5----5----5----5----5----|
D|--5----5----5----5----5----5----5----5----3---3---3---3----3----3----3----3----|
A|-------------------------------------------------------------------------------|
E|-------------------------------------------------------------------------------|
     1    2    3    4    1    2    3    4
[Verse]
e|----------------------------------------------------------------------------------|
B|----------------------------------------------------------------------------------|
G|---7----7----7----7----7----7----7----7----7----7----7----7----7----7----7----7---|
D|---5----5----5----5----5----5----5----5----5----5----5----5----5----5----5----5---|
A|----------------------------------------------------------------------------------|
E|----------------------------------------------------------------------------------|
     1    +    2    +    3    +    4    +    1    +    2    +    3    +    4    + 

e|----------------------------------------------------------------------------------|
B|----------------------------------------------------------------------------------|
G|---7----7----7----7----7----7----7----7----7----7----7----7----7----7----7----7---|
D|---5----5----5----5----5----5----5----5----5----5----5----5----5----5----5----5---|
A|----------------------------------------------------------------------------------|
E|----------------------------------------------------------------------------------|
     1    +    2    +    3    +    4    +    1    +    2    +    3    +    4    +

[Chorus]
e|---------------------------------------------------------------------------|
B|---------------------------------------------------------------------------|
G|---------------------------------------------------------------------------|
D|--5-------------------3-------------------5----------------3---------------|
A|--5-------------------3-------------------5----------------3---------------|
E|--3-------------------1-------------------3----------------1---------------|
    1    2    3    4    1    2    3    4    1   2   3   4    1    2    3    4   

e|---------------------------------------------------------------------------|
B|---------------------------------------------------------------------------|
G|---------------------------------------------------------------------------|
D|---5-------------------5---------------------------------------------------|
A|---5-------------------5---------------------------------------------------|
E|---3-------------------1---------------------------------------------------|
     1    2    3    4    1    2    3    4

[Bridge]
e|---------------------------------------------------------------------------|
B|---------------------------------------------------------------------------|
G|---------------------------------------------------------------------------|
D|---5----3----5b1/4STEPp3---------5----3----5b1/4STEPp3---------------------|
A|---------------------------------------------------------------------------|
E|---------------------------------------------------------------------------|
    1      2   3 e +    4          1     2   3 e +     4 

[Hard Rock Bit]
e|----------------------------------------------------------------------------------------------------|
B|----------------------------------------------------------------------------------------------------|
G|----------------------------------------------------------------------------------------------------|
D|---5----5---5---5---5---5--------5----------------------------3---5---5---5---5--5-5---------5------|
A|---5----5---5---5---5---5--------5----------------------------3---5---5---5---5--5-5---------5------|
E|---3----3---3---3---3---3--------3----------------------------1---3---3---3---3--3-3---------3------|
     +    1   +   2   +   3   +    4    +    1    2    3    4   +   1   +   2   +  a 3    4    +   

e|---------------------------------------------------------------------------|
B|---------------------------------------------------------------------------|
G|---------------------------------------------------------------------------|
D|-3--5--5-5--5---5----5--5--5--5--------------------------------------------|
A|-3--5--5-5--5---5----5--5--5--5--------------------------------------------|
E|-1--3--3-3--3---3----3--3--3--3--------------------------------------------|
   1  +  2 e  +   3    4  e  +  a

[Chorus]
e|---------------------------------------------------------------------------|
B|---------------------------------------------------------------------------|
G|---------------------------------------------------------------------------|
D|--5-------------------3-------------------5----------------3---------------|
A|--5-------------------3-------------------5----------------3---------------|
E|--3-------------------1-------------------3----------------1---------------|
    1    2    3    4    1    2    3    4    1   2   3   4    1    2    3    4   

e|---------------------------------------------------------------------------|
B|---------------------------------------------------------------------------|
G|---------------------------------------------------------------------------|
D|---5-------------------5---------------------------------------------------|
A|---5-------------------5---------------------------------------------------|
E|---3-------------------1---------------------------------------------------|
     1    2    3    4    1    2    3    4

[Bridge]
e|---------------------------------------------------------------------------|
B|---------------------------------------------------------------------------|
G|---------------------------------------------------------------------------|
D|---5----3----5b1/4STEPp3---------5----3----5b1/4STEPp3---------------------|
A|---------------------------------------------------------------------------|
E|---------------------------------------------------------------------------|

    1      2   3 e +    4          1     2   3 e +     4 

[Verse]
e|----------------------------------------------------------------------------------|
B|----------------------------------------------------------------------------------|
G|---7----7----7----7----7----7----7----7----7----7----7----7----7----7----7----7---|
D|---5----5----5----5----5----5----5----5----5----5----5----5----5----5----5----5---|
A|----------------------------------------------------------------------------------|
E|----------------------------------------------------------------------------------|
     1    +    2    +    3    +    4    +    1    +    2    +    3    +    4    + 

e|----------------------------------------------------------------------------------|
B|----------------------------------------------------------------------------------|
G|---7----7----7----7----7----7----7----7----7----7----7----7----7----7----7----7---|
D|---5----5----5----5----5----5----5----5----5----5----5----5----5----5----5----5---|
A|----------------------------------------------------------------------------------|
E|----------------------------------------------------------------------------------|
     1    +    2    +    3    +    4    +    1    +    2    +    3    +    4    +

[Chorus]
e|---------------------------------------------------------------------------|
B|---------------------------------------------------------------------------|
G|---------------------------------------------------------------------------|
D|--5-------------------3-------------------5----------------3---------------|
A|--5-------------------3-------------------5----------------3---------------|
E|--3-------------------1-------------------3----------------1---------------|
    1    2    3    4    1    2    3    4    1   2   3   4    1    2    3    4   

e|---------------------------------------------------------------------------|
B|---------------------------------------------------------------------------|
G|---------------------------------------------------------------------------|
D|---5-------------------5---------------------------------------------------|
A|---5-------------------5---------------------------------------------------|
E|---3-------------------1---------------------------------------------------|
     1    2    3    4    1    2    3    4

[Outro]
e|---------------------------------------------------------------------------|
B|---------------------------------------------------------------------------|
G|---------------------------------------------------------------------------|
D|---5----3----5b1/4STEPp3---------5----3----5b1/4STEPp3---------------------|
A|---------------------------------------------------------------------------|
E|---------------------------------------------------------------------------|
    1      2   3 e +    4          1     2   3 e +     4

************************************

| b  Bend
| /  Slide up

************************************
Suggest correction
Creating personal tab
Creating personal tab
You can edit any tab online and save it as your Personal.

You can edit, replace or remove any tab part or add personal notes – all changes will be seen only by you.

Personal tabs can be accessed anytime from any device, even offline.
Learn more »
Give kudos to tab author, rate the tab!
1 2 3 4 5
comments
print report bad tab
guest
You may want to rate the tab now too:
select rating
Wanna post a correction for this tab? Suggest correction