Oops, an error
Loading. Please wait.

Moving Mountains Tab

400 views 45 this week
no commentswrite comment
1 2 3 4 5
2 more votes to show rating
add to favorites
launch autoscroll
font size
0
reset
how to read this tab
guitar tuner
Autoscroll
slow
fast
+/-
esc
set tempo
stop
Help us to improve Ultimate-Guitar.com Take our survey!
×
Author
Difficulty
intermediate
Props to my guitar teacher for helping me with this one!


[Intro/Verse]

  Cm                           Fm               Eb               G/B
 e|----------------------------|----------------|----------------|---------------------------|
 B|--4--------4--4---------4---|---9--------9---|---8--------8---|---3--------3--3--------3--|
 G|--------0------------0------|---------0------|---------0------|---------0-----------0-----|
 D|----------------------------|----------------|----------------|---------------------------|
 A|--3--3--------3---3---------|---8--8---------|---6--6---------|---2--2--------2--2--------|
 E|----------------------------|----------------|----------------|---------------------------|


  Gm/Bb                       Am7                          Ab               Fm6
 e| --------------------------|----------------------------|----------------|-------------|
 B|--3--------3--3--------3---|---1--------1--1--------1---|---1--------1---|-------------|
 G|--------0-----------0------|---------0-----------0------|----------------|---1------1--|
 D|---------------------------|----------------------------|---------0------|-------0-----|
 A|--1--1--------1--1---------|---0--0--------0--0---------|----------------|-------------|
 E|---------------------------|----------------------------|---4--4---------|---1--1------|


  G                           Ab               Fm6            G
 e|---------------------------|----------------|--------------|---------------|
 B|---------------------------|---1--------1---|--------------|---------------|
 G|--4--------4--4--------4---|----------------|---1------1---|---4--------4--|
 D|--------0-----------0------|---------0------|-------0------|---------0-----|
 A|---------------------------|----------------|--------------|---------------|
 E|--3--3--------3--3---------|---4--4---------|---1--1-------|---3--3--------|


[Chorus]
(For once)

  C                                       Eb
 e|---------------------------------------|---------------------------------------|
 B|--5-----------5-----5-----------5------|---8-----------8-----8-----------8-----|
 G|--------5-----------------5------------|---------6-----------------6-----------|
 D|-----5-----5-----5-----5-----5-----5---|------0-----6-----6-----0-----6-----6--|
 A|--3-----------------3------------------|---6-----------------6-----------------|
 E|---------------------------------------|---------------------------------------|

  Bb                                      Fm
 e|---------------------------------------|---------------------------------------|
 B|--3-----------3-----3-----------3------|---9-----------9-----9-----------9-----|
 G|--------3-----------------3------------|---------8-----------------8-----------|
 D|-----3-----3-----3-----3-----3-----3---|------8-----8-----8-----8-----8-----8--|
 A|--1-----------------1------------------|---8-----------------8-----------------|
 E|---------------------------------------|---------------------------------------|


  Ab                                      Cm
 e|---------------------------------------|---------------------------------------|
 B|--4-----------4-----4-----------4------|---4-----------4-----4-----------4-----|
 G|--------5-----------------5------------|---------5-----------------5-----------|
 D|-----6-----6-----6-----6-----6-----6---|------5-----5-----5-----5-----5-----5--|
 A|---------------------------------------|---3-----------------3-----------------|
 E|--4-----------------4------------------|---------------------------------------|


  Gm/Bb
 e|----------------------------------------------------------|
 B|--3----------3-----3-----------3-----3-----------3-----3--|
 G|--------0-------0--------0--------0--------0--------0-----|
 D|----------------------------------------------------------|
 A|--1--1----1--------1--1-----1--------1--1-----1--------1--|
 E|----------------------------------------------------------|
Suggest correction
Give kudos to tab author, rate the tab!
1 2 3 4 5
comments
print report bad tab
guest
You may want to rate the tab now too:
select rating
Wanna post a correction for this tab? Suggest correction