Oops, an error
Loading. Please wait.

Fast Car tab

by Skyway
106 views 3 this week
no commentswrite comment
1 2 3 4 5
3 more votes to show rating
add to favorites
×
Save as Personal and add changes to this tab that will be seen only by you. Learn more ›
×
You can save this tab as Personal to edit and correct it or add notes. All changes will be seen only by you. Learn more »
launch autoscroll
font size
0
reset
how to read this tab
guitar tuner
edit
Autoscroll
slow
fast
+/-
esc
set tempo
stop
Title: Fast Car
Artist: Skyway
Key: F#m
Guitar 1, 2 and 3 Dist
Guitar 4 - Clean
Tabber: mulishus
Tempo = 120

TUNING:  DROP D


[INTRO RIFF A]

(Guitar 1)

e||-------------------------------------------|
B||-------------------------------------------|
G||-------------------------------------------|
D||-----------------------------7-------------|
A||-5-5-5p4h5-----5-5-5p4h5-----------5-------|
D||-------------------------------------------|
     [PM]         [PM]

|-------------------------------------------||
|-------------------------------------------||
|-------------------------------------------||  x4
|------------------------------4------------||
|--5-5-5p4h5-----5-5-5p4h5-----------5------||
|-------------------------------------------||
  [PM]          [PM]
  
  
[INTRO RIFF B]

(Guitar 2)

e|----------------------------------------------------|
B|----------------------------------------------------|
G|----------------------------------------------------|
D|--0--0--------------7--7----------4-4---------2-2---| x3
A|--0--0--------------7--7----------4-4---------2-2---|
E|--0--0--------------7--7----------4-4---------2-2---|
 

[INTRO RIFF C]

(Guitar 3)

e|------------------------------|----------------------|
B|------------------------------|-9/10---10--9----9----|
G|-6/7-----6--7/9-------9-------|--------------------9-|  
D|---------------------------7--|----------------------|
A|------------------------------|----------------------|
E|------------------------------|----------------------| x3
 
(alt ending)

e|-------------------------------------------|
B|--9/10-------12------------10---9h10--9----|
G|-------------------------------------------|
D|-------------------------------------------|
A|-------------------------------------------|
E|-------------------------------------------|
 

[VERSE RIFFS]


(Guitar 1)


[VERSE RIFF A]

e||--------------------------------------|
B||--------------------------------------|
G||--------------------------------------|
D||--------------------------------------| 
A||-0-0--0-0-0-0-7--7-7--7-7-7-7-7-7-7---|
E||-0-0--0-0-0-0-7--7-7--7-7-7-7-7-7-7---|
        [  PM   ]        [    PM     ]

e|---------------------------------------||
B|---------------------------------------||
G|---------------------------------------||   x2
D|---------------------------------------||
A|--4--4-4--4-4-4-2--2-2--2-2-2-2-2-2-2--||
E|--4--4-4--4-4-4-2--2-2--2-2-2-2-2-2-2--||
          [PM  ]         [    PM      ]
        
        
(Guitar 1)

[VERSE RIFF B]

e||---------------------------------------------------|
B||---------------------------------------------------|
G||---------------------------------------------------|
D||---------------------------------------------------|
A||-0--0--0--0--0--0--7--7--7--7--7--7--7--7--7--7----|
E||-0--0--0--0--0--0--7--7--7--7--7--7--7--7--7--7----|
                                                                  x2
e|---------------------------------------------------||
B|---------------------------------------------------||
G|---------------------------------------------------||
D|---------------------------------------------------||
A|--4--4--4--4--4--4--2--2--2--2--2--2--2--2--2--2---||
E|--4--4--4--4--4--4--2--2--2--2--2--2--2--2--2--2---||
 

(Guitar 2)


[VERSE RIFF A]

e||-----------------------------------|
B||-----------------------------------|
G||-6-6-7-7-6-6-9-9-9-9-9-9-----------|
D||-------------------------7-7-7-7---|
A||-----------------------------------|
E||-----------------------------------|
  [            PM                ]
                                                  x2
e|-----------------------------------------||
B|--10-10-10-10-10-10-9-9-9-9-9-9----------||
G|--------------------------------9-9-9-9--||
D|-----------------------------------------||
A|----------- -----------------------------||
E|-----------------------------------------||
 [            PM                         ]


(Guitar 2)


[VERSE RIFF B]

e|-----------------------------|-----------------------|
B|-----------------------------|--9/10---10--9----9----|
G|-6/7-----6--7/9-------9------|---------------------9-|
D|---------------------------7-|-----------------------|
A|-----------------------------|-----------------------|
E|-----------------------------|-----------------------|  x2 
 
(alt ending)

e|-------------------------------------------|
B|--9/10-------12------------10---9h10--9----|
G|-------------------------------------------|
D|-------------------------------------------|
A|-------------------------------------------|
E|-------------------------------------------|
 

[BRIDGE 1]

(Guitar 1)

e|----------------------------------------------------|
B|----------------------------------------------------|
G|----------------------------------------------------|
D|--0--0--------------7--7----------4-4---------2-2---|  x2
A|--0--0--------------7--7----------4-4---------2-2---|
E|--0--0--------------7--7----------4-4---------2-2---|
 
 
(Guitar 2)

e|------------------------------|----------------------|
B|------------------------------|-9/10---10--9----9----|
G|-6/7-----6--7/9-------9-------|--------------------9-|
D|---------------------------7--|----------------------| x2
A|------------------------------|----------------------|
E|------------------------------|----------------------|
 
(alt ending)

e|-------------------------------------------|
B|--9/10-------12------------10---9h10--9----|
G|-------------------------------------------|
D|-------------------------------------------|
A|-------------------------------------------|
E|-------------------------------------------|
 

[BRIDGE 2]

(Guitar 1)

e||-------------------------------------------|
B||-------------------------------------------|
G||-------------------------------------------| 
D||-----------------------------7-------------|
A||-5-5-5p4h5-----5-5-5p4h5-----------5-------|
D||-------------------------------------------|
    [PM]         [PM]
                                                             x 2
e|-------------------------------------------||
B|-------------------------------------------||
G|-------------------------------------------||
D|------------------------------4------------||
A|--5-5-5p4h5-----5-5-5p4h5-----------5------||
E|-------------------------------------------||
 

(Guitar 2)

e|----------------------------------------------------|
B|----------------------------------------------------|
G|----------------------------------------------------|
D|--0--0--------------7--7----------4-4---------2-2---|  x 2
A|--0--0--------------7--7----------4-4---------2-2---|
E|--0--0--------------7--7----------4-4---------2-2---|
 

[CHORUS RIFF A]

(Guitars 1 and 2)

e|----------------------------------------------------|
B|----------------------------------------------------|
G|--7--------7--7--7--7-------------------------------|
D|--0--------0--0--0--0--------0-----0--0--0--0--0----|
A|--0--------0--0--0--0--------0-----0--0--0--0--0----|
E|--0--------0--0--0--0--------0-----0--0--0--0--0----|
 
e|----------------------------------------------------|
B|----------------------------------------------------|
G|----------------------------------------------------|
D|--7--------7--7--7--7--------7-----7--7--7--7--7----|
A|--7--------7--7--7--7--------7-----7--7--7--7--7----|
E|--7--------7--7--7--7--------7-----7--7--7--7--7----|
 

e|----------------------------------------------------|
B|----------------------------------------------------|
G|----------------------------------------------------|
D|--4--------4--4--4--4--------4-----4--4--4--4--4----|
A|--4--------4--4--4--4--------4-----4--4--4--4--4----|
E|--4--------4--4--4--4--------4-----4--4--4--4--4----|
 

e|----------------------------------------------------|
B|----------------------------------------------------|
G|----------------------------------------------------|
D|--2--------2--2--2--2--------2-----2--2--2--2--2----|
A|--2--------2--2--2--2--------2-----2--2--2--2--2----|
E|--2--------2--2--2--2--------2-----2--2--2--2--2----|
 

[CHORUS RIFF B]

(Guitar 1)

e||---------------------------------------------------|
B||---------------------------------------------------|
G||---------------------------------------------------|
D||-0-----0--0--------4-------------------------------|
A||-0-----0--0--0--0--4--------4--4--4--4--4--4--4----|
E||-0-----0--0--0--0--4--------4--4--4--4--4--4--4----|
                                                                x 2

e|---------------------------------------------------||
B|---------------------------------------------------||
G|---------------------------------------------------||
D|--2-----2--2--------2------------------------------||
A|--2-----2--2--2--2--2--------2--2--2--2--2--2--2---||
E|--2-----2--2--2--2--2--------2--2--2--2--2--2--2---||
 

[CHORUS END]

(Guitar 1 and 2)

e|-------------------------------------------------------------|
B|-------------------------------------------------------------|
G|-------------------------------------------------------------|
D|--0---------------------0-----x--------2-----------------2-2-|
A|--0---------------------0-----x--------2-----------------2-2-|
                                                         [PM]
 
[CHORUS RIFF B]

(Guitar 2)

e|----------------------------------------------------|
B|----------------------------------------------------|
G|--7-----7--7--7--7--11-------11-11-11-11-11-11-11---|
D|----------------------------------------------------|
A|--5-----5--5--5--5--9--------9--9--9--9--9--9--9----|
E|----------------------------------------------------|
 

e|----------------------------------------------------|
B|----------------------------------------------------|
G|--9-----9--9--9--9--9--------9--9--9--9--9--9--9----|
D|----------------------------------------------------|
A|--7-----7--7--7--7--7--------7--7--7--7--7--7--7----|
E|----------------------------------------------------|
 

e|----------------------------------------------------|
B|----------------------------------------------------|
G|--7-----7--7--7--7--11-------11-11-11-11-11-11-11---|
D|----------------------------------------------------|
A|--5-----5--5--5--5--9--------9--9--9--9--9--9--9----|
E|----------------------------------------------------|
 

e|------------------------------------------|
B|------------------------------------------|
G|--13--14-13---------9-------9--9-9-9-9-9--|
D|------------------------------------------|
A|--11/-12\11---------7-------7--7-7-7-7-7--|
E|------------------------------------------|
 

[OUTRO]
    
(Guitar 4)

e|-------------0------0------------|
B|--2/3----2-----------------------|
G|-------------------------2-------|
D|---------------------------------|
A|--0----------0-----------0-------|
E|---------------------------------|
 

e|--4/5--------5\4-------4-----0--|
B|--------------------------------|
G|--------------------------------|
D|--------------------------------|
A|--0------------0-------------0--|
E|--------------------------------|



**************************
|h     Hammer-on
|p     Pull-off 
|/     Slide up
|\     Slide down
**************************  
 
 
SONG STRUCTURE

INTRO
VERSE ONE
BRIDGE 1
VERSE TWO (Drum and Bass only x2 then Guitars 1 and 2 x2)
BRIDGE 2  
VERSE THREE
BRIDGE 1
VERSE FOUR
CHORUS
BRIDGE 2 
VERSE FIVE 
BRIDGE 1
CHORUS
BRIDGE 2
VERSE SIX 
OUTRO

            
            
Suggest correction
Creating personal tab
Creating personal tab
You can edit any tab online and save it as your Personal.

You can edit, replace or remove any tab part or add personal notes – all changes will be seen only by you.

Personal tabs can be accessed anytime from any device, even offline.
Learn more »
Give kudos to tab author, rate the tab!
1 2 3 4 5
comments
print report bad tab
guest
You may want to rate the tab now too:
select rating
Wanna post a correction for this tab? Suggest correction